.

( )

A                                                   

ZDES' KUYUT METALL
--------------------------------------------------------------------------------
Tempo: slow (~=85 bpm)
(0:15 - 0:45)
RIFF 1 (*2 times)
E||----------------------------------|---------------------------------|
H||----------------------------------|---------------------------------|
G||----------------------------------|---------------------------------|
D||-2--------------------------------|-(2)---------------------------7-|
A||-2--------------------------------|-(2)-----------------5-6-7---7-5-|
E||-0--------------------------------|-(0)-----------------------7-----|
E|-----------------------------------|---------------------------------|
H|-----------------------------------|---------------------------------|
G|-----------------------------------|---------------------------------|
D|-(7)-------------------------------|-(7)---------------------5-5-4-5-|
A|-(5)-------------------------------|-(5)---------------------------3-|
E|-----------------------------------|---------------------------------|
E|-----------------------------------|- 2/4 measure -----||
H|-----------------------------------|-------------------||
G|-----------------------------------|-------------------||
D|-(5)-------------------------------|-4--5--0--2--------||
A|-(3)-------------------------------|-------------4-----||
E|-----------------------------------|----------------3--||
then lots of A5 chords
(1:07 - 1:30)
RIFF 2 (*4 times)
E||---------------------------------|---------------------------------||
H||---------------------------------|---------------------------------||
G||---------------------------------|---------------------------------||
D||-------7---------------5---------|-------4---------------5---------||
A||-0-5-7-----------0-5-7-----------|-0-5-7-----------0-5-7-----------||
E||---------------------------------|---------------------------------||
then Verse with A5, again Riff 2
CHORUS:
O - e - o - e - e - o - e - e - e - o - e - e - o...
E||---------------------------------|---------------------------------||
H||---------------------------------|---------------------------------||
G||-7-----7-----7---7-----7-----7---|-7-----7-----7---7-----7-----7---||
D||-7-----7-----7---7-----7-----7---|-7-----7-----7---7-----7-----7---||
A||-5-5-5-5-5-5-5---5-5-5-5-5-5-5---|-5-5-5-5-5-5-5---5-5-5-5-5-5-5---||
E||---------------------------------|---------------------------------||