.

( )

A                                                   


Riff 1 :

bend 1/4

E---------------------------------------------------------------|
H---------------------------------------------------------------|
G---------------------------------------------------------------| This line
D-------9----------7-------------------0-------------0----------| play
A----9-----9-----7------------------4-----4-------4-----4-------| 4 times
E--7-----------5------3^--5--3---2-------------2----------------|

E---------------------------------------------------------------|
H---------------------------------------------------------------|
G--------------------------------7---------7--------------------|
D---4----2---x-x-x-x-x-x---2--2--7------7-----7-----------------|
A---4----2---x-x-x-x-x-x---2--2--5---5-----------5--------------|
E---2----0---x-x-x-x-x-x---0--0---------------------------------|

E---------------------------------------------------------------|
H---------------------------------------------------------------|
G---------7------------2----------------------------------------|
D------7-----7------2-----2----------5-----------5--------------|
A---5------------4----------------5-----5------5---5---5--------|
E------------------------------3-------------3-------3----------|

E---------------------------------------------------------------|
H---------------------------------------------------------------|
G---------7-----------------------------------------------------|
D------7-----7------------0---4---------------------------------|
A---5-----------------4-------4---------------------------------|
E-----------------2---------------------------------------------|

Lyrycs for riff 1 :

a ac ca x .

a x po cpe c.

, a ce ee.

cpo aa p opo.

e o o, o pe :

Riff 2 :

"Co-o-o-o- !!!"

E||
H---------------------------------|---------------------------------|
G*----------7--6--4h6p4-----------|--------4--7--6--4h6p4-----------|
D*-------9---------------7--5--4--|-----5------------------7--5--4--|
A-----9---------------------------|--7------------------------------|
E--7------------------------------|---------------------------------|

E||
H---------------------------------|---------------------------------|
G--------4--7--6-7-9-7-6-7--------|-----------7--6--4h6p4-----------|
D-----5---------------------------|--------9---------------7--5--4--|
A--7------------------------------|-----9---------------------------|
E---------------------------------|--7------------------------------|

________________________________ ______________________________

1. ||2.

E---------------------------------||--------------------------------|
H---------------------------------||--------------------------------|
G--------------------------------*||--------------------------------|
D------9------7------5------7----*||------9------7------5------7----|
A------9------7------5------7-----||------9------7------5------7----|
E--7-7-7--5-5-5--3-3-3--5-5-5-----||--7-7-7--5-5-5--3-3-3--5-5-5----|

E---------------------------------------------------------------|
H---------------------------------------------------------------|
G---------------------------------------------------------------|
D---9--9-9-9--9-9-9--9-9-9--9-9-9--9-9-9--9-9-9--9-9-9----------|
A---9--9-9-9--9-9-9--9-9-9--9-9-9--9-9-9--9-9-9--9-9-9----------|
E---7--7-7-7--7-7-7--7-7-7--7-7-7--7-7-7--7-7-7--7-7-7-5-5------|

I verse :

H5

aa ac oo a oco,

E--------------------------------------------------------|
H--------------------------------------------------------|
G---4----------------------------------------------------|
D---4----------------------------------------------------|
A---2----------------------------------------------------|
E--------------------------------------------------------|

A5 H5

Ha cax a cepe pec.

E--------------------------------------------------------|
H--------------------------------------------------------|
G-------2------------------4--4-4-4--4-4-4--4-4-4-2-2----|
D-------2------------------4--4-4-4--4-4-4--4-4-4-2-2----|
A-------0------------------2--2-2-2--2-2-2--2-2-2-0-0----|
E--------------------------------------------------------|

H5 C#5

Ko eoe, ec coe.

E--------------------------------------------------------|
H--------------------------------------------------------|
G---4----------------6-----------------------------------|
D---4----------------6-----------------------------------|
A---2----------------4-----------------------------------|
E--------------------------------------------------------|

C5 H5

aa ap ec epy ec.

E--------------------------------------------------------|
H--------------------------------------------------------|
G---------5---------------4--4-4-4--4-4-4--4-4-4-2-2-----|
D---------5---------------4--4-4-4--4-4-4--4-4-4-2-2-----|
A---------3---------------2--2-2-2--2-2-2--2-2-2-0-0-----|
E--------------------------------------------------------|

H5

, o ope oeac po,

A5 H5

y a pyccy po.

H5 C#5

c eca ca oo cya

C5 H5

acpy opey co.

E--------------------------------------------------------|
H--------------------------------------------------------|
G-----5----------------4--4-4-4--4-4-4--4-4-4-4-4--------|
D-----5----------------4--4-4-4--4-4-4--4-4-4-4-4--------|
A-----3----------------2--2-2-2--2-2-2--2-2-2-2-2--------|
E--------------------------------------------------------|

Chorus :

E---------------------------------------------------------------|
H---------------------------------------------------------------|
G---------------------------------------------------------------|
D---------------------------------------------------------------|
A---------------------------------------------------------------|
E---------------------------------------------------------------|

eep eo cya, e po

, ca o coa, o e o.

Ey e eo cpax, e oo,

ce opac pax, oo e

o-o-o-o- !

E---------------------------------------------------------------|
H------------------------------5--7--------------7p5------------|
G---7-----------------------4--6--7----7----4----7p6------------|
D---7----7----4----4--5--7--5----------7----5-------------------|
A-------10----5----5--5-10--------------------------------------|
E---------------------------------------------------------------|

 

E---------------------------------------------------------------|
H------------------------------5--7-----------------------------|
G---7-----------------------4--6--7----7----4~~~~~--------------|
D---7----7----4----4--5--7--5----------7----5~~~~~--------------|
A-------10----5----5--5-10--------------------------------------|
E---------------------------------------------------------------|

E---------------------------------------------------------------|
H------------------------------5--7--------------7p5------------|
G---7-----------------------4--6--7----7----4----7p6------------|
D---7----7----4----4--5--7--5----------7----5-------------------|
A-------10----5----5--5-10--------------------------------------|
E---------------------------------------------------------------|

E-------------------------------------------3-------------------|
H------------------------------5--7---------5---5---------------|
G---7-----------------------4--6--7---7---------6---------------|
D---7----7----4----4--5--7--5---------7-------------------------|
A-------10----5----5--5-10--------------------------------------|
E---------------------------------------------------------------|