.

( )

A                                                   

YA NE SOSHEL S UMA
a pa O...
Measure size: 12/8
Tuning: normal
Tempo: slow (103 bpm)
INTRO:
(0:01 - 0:29)
RIFF 1: (Synthesizer arranged for guitar)
SynthE|--Cm#--------------------------------------------|--A----------------------------------------------|
H|-----------------9-------------------------------|-----------------9-------------------------------|
G|-6-------------------9---8-----------9-----------|-6-------------------9---8-----------9-----------|
D|-------------------------------------------------|-------------------------------------------------|
A|-------------------------------------------------|-------------------------------------------------|
E|-------------------------------------------------|-------------------------------------------------|
SynthE|--Bbm--------------------------------------------|-Fm#---------Gm#---------A-----------------------|
H|-----------------6-------------------------------|-------------------------------------------------|
G|-8---6---------------6---5-----------6-----------|-8-------6---8-------6---8-------6---------------|
D|-------------------------------------------------|-------------------------------------------------|
A|-------------------------------------------------|-------------------------------------------------|
E|-------------------------------------------------|-------------------------------------------------|
SynthE|--Cm#--------------------------------------------|--A----------------------------------------------|
H|-----------------9-------------------------------|-----------------9-------------------------------|
G|-6-------------------9---8-----------9-----------|-6-------------------9---8-----------9-----------|
D|-------------------------------------------------|-------------------------------------------------|
A|-------------------------------------------------|-------------------------------------------------|
E|-------------------------------------------------|-------------------------------------------------|
SynthE|--Bbm--------------------------------------------|-Fm#---------Gm#---------A-----------------------|
H|-----------------6-------------------------------|-------------------------------------------------|
G|-8---6---------------6---5-----------6-----------|-8-------6---8-------9---8-------6---------------|
D|-------------------------------------------------|-------------------------------------------------|
A|-------------------------------------------------|-------------------------------------------------|
E|-------------------------------------------------|-------------------------------------------------|
Tempo: faster (120 bpm)
(0:29 - 0:53)
RIFF 2:
Gtr.1E|--------------------------------------------------|----------------------------------- bend 1/4 ----|
H|--------------------------------------------------|-------------------------------------2^----------|
G|--------------------------------------------------|-------------------------4p0-3p0-2p0-2^----------|
D|--0h2-2-2---0-2--------0--0h2-2-2---0-2--------0--|-0h2-2-2---0-2-----------------------------------|
A|--0h2-2-2---0-2--------0--0h2-2-2---0-2--------0--|-0h2-2-2---0-2--------0--------------------------|
E|------------.----------.------------.----------.--|-----------.-------------------------------------|
Gtr.1E|--------------------------------------------------|-------------------------------------------------|
H|--------------------------------------------------|-------------------------------------------------|
G|--------------------------------------------------|-------------------------------------------------|
D|--0h2-2-2---0-2--------0--0h2-2-2---0-2--------0--|-0h2-2-2---0-2--------0------7-----5-------------|
A|--0h2-2-2---0-2--------0--0h2-2-2---0-2--------0--|-0h2-2-2---0-2--------0--5/7---7\\5---------------|
E|------------.----------.------------.----------.--|-----------.-------------sl----sl----3~~~~~------|
Gtr.1E|--------------------------------------------------|-------------------------------------------------|
H|--------------------------------------------------|-------------------------------------2^----------|
G|--------------------------------------------------|-------------------------4p0-3p0-2p0-2^----------|
D|--0h2-2-2---0-2--------0--0h2-2-2---0-2--------0--|-0h2-2-2---0-2-----------------------------------|
A|--0h2-2-2---0-2--------0--0h2-2-2---0-2--------0--|-0h2-2-2---0-2--------0--------------------------|
E|------------.----------.------------.----------.--|-----------.-------------------------------------|
Gtr.1E|--------------------------------------------------|-------------------------------------------------|
H|--------------------------------------------------|-------------------------------------------------|
G|--------------------------------------------------|-------------------------------------------------|
D|--0h2-2-2---0-2--------0--0h2-2-2---0-2--------0--|-0h2-2-2---0-2--------0--7-----------5-----------|
A|--0h2-2-2---0-2--------0--0h2-2-2---0-2--------0--|-0h2-2-2---0-2--------0--7-----------5-----------|
E|------------.----------.------------.----------.--|-----------.-------------5-----------3-----------|
(0:53 - 1:17)
VERSE 1:
VoiceE|----------------------------------------------------------------------------------------------------|
H|----------------------------------------------------------------3-----------------------------------|
G|---4----------4-------4-------------------2---4-----5-------------------5-------------------2---4---|
D|----------------------------------------------------------------------------------------------------|
A|----------------------------------------------------------------------------------------------------|
E|- Day mne zhit\', tak kak ya ho - chu. Es -li -|
| | |
Bass G|----------9-----------9---------------9-----------|---------5-----------5---------------5-----------|
D|------9-----------9---------------9---------------|-----5-----------5---------------5---------------|
A|--7-----------7---------------7-----------0---2---|-3-----------3---------------3-----------3---2---|
E|--------------------------------------------------|-------------------------------------------------|

VoiceE|----------------------------------------------------------------------------------------------------|
H|--------------3-------------------------------------------------------------------------------------|
G|--5-------------------5-----------------------------4---2-------4---2-------4---2-------2-----------|
D|----------------------------------------------------------------------------------------------------|
A|----------------------------------------------------------------------------------------------------|
E| net - u - bey. Mne - e zde - es\' te - es - no. -------|
| | |
Bass G|----------2-----------4-----------5-----------7---|---------9---12--9---------------11--12--11------|
D|------2-----------4-----------5-----------7-------|-----10--------------10------12--------------12\\-|
A|--0-----------0-----------0-----------0-----------|-10----------------------0-----------------------|
E|--------------------------------------------------|-------------------------------------------------|

Zna - yu ya, ya vse - go lish\' gost\'. Na tvo -
Bass G|----------9-----------9---------------9-----------|---------5-----------5---------------5-----------|
D|------9-----------9---------------9---------------|-----5-----------5---------------5---------------|
A|--7-----------7---------------7-----------0---2---|-3-----------3---------------3-----------3---2---|
E|--------------------------------------------------|-------------------------------------------------|

VoiceE|----------------------------------------------------------------------------------------------------|
H|--------------3-------------------------------------7-----------5-----------8-----------7-----------|
G|--5-------------------5-----------------------------------------------------------------------------|
D|----------------------------------------------------------------------------------------------------|
A|----------------------------------------------------------------------------------------------------|
E| -ey zem - le mne net mes - ta! ------|
| | |
Bass G|----------5-----------5-----------5-----------5---|-------------------------------------------------|
D|------5-----------4-----------3-----------2-------|-------------------------------------------------|
A|--0-----------0-----------0-----------0-----------|-3---3---3-3-3-----------5---5---5-5-5-----------|
E|--------------------------------------------------|-------------------------------------------------|
| | |
Gtr.1E|--------------------------------------------------|-------------------------------------------------|
H|--------------------------------------------------|-------------------------------------------------|
G|--------------------------------------------------|-------------------------------------------------|
D|--------------------------------------------------|-------------5-----------------------7-----3-----|
A|--------------------------------------------------|-3---3---3-3-3-----------5---5---5-5-5---0-0-----|
E|--------------------------------------------------|-3---3---3-3-3-----------5---5---5-5-5---.->-----|
. . . . > . . . . >
(1:17 - 1:41)
BRIDGE:
VoiceE|----------------------------------------------------------------------------------------------------|
H|--5----------------5--5---6-------6-------6----6----7-------7-------7---7---6-----------------------|
G|----------------------------------------------------------------------------------5-----5-----------|
D|----------------------------------------------------------------------------------------------------|
A|----------------------------------------------------------------------------------------------------|
E| Zdes\' brodyat te - ni, i - mi dvi - zhet za -pah de - e - neg. -----|
| | |
Gtr.1E|--------------------------------------------------|-------------------------------------------------|
H|--------------------------------------------------|-------------------------------------------------|
G|--------------------------------------------------|-------------------------------------------------|
D|--2---------------2-------3---------------3-------|-4---------------4-------3---------------3-------|
A|--0---0-0-0---0---0---0---0---0-0-0---0---0---0---|-0---0-0-0---0---0---0---0---0-0-0---0---0---0---|
E|-->---.-.-.---.--->---.--->---.-.-.---.--->---.---|->---.-.-.---.--->---.--->---.-.-.---.--->---.---|

VoiceE|----------------------------------------------------------------------------------------------------|
H|--5-------5---5-------5---6-------6-------8----6----5-----------------------------------------------|
G|---------------------------------------------------------6-----6------------------------------------|
D|-------------------------------------------------------------------8-------7------------------------|
A|----------------------------------------------------------------------------------------------------|
E| Bol\' dru -gih i ho - lod gre - yut i - im se - erd - tza. ----------|
| | |
Gtr.1E|--------------------------------------------------|-------------------------------------------------|
H|--------------------------------------------------|-------------------------------------------------|
G|--------------------------------------------------|-------------------------------------------------|
D|--2---------------2-------3---------------3-------|-4---------------4-----------3-------3---5-------|
A|--0---0-0-0---0---0---0---0---0-0-0---0---0---0---|-0---0-0-0---0---0---0-------3-------3---3-------|
E|--------------------------------------------------|-------------------------1---1---1---1-----------|
> . . . . > . > . . . . > . > . . . . > . . > . > >

Svyaz\' vre -men ras -pa - las\', i zlo - dey, i svet -lyy ge - e - niy
Gtr.1E|--------------------------------------------------|-------------------------------------------------|
H|--------------------------------------------------|-------------------------------------------------|
G|--------------------------------------------------|-------------------------------------------------|

D|--2---------------2-------3---------------3-------|-4---------------4-------3---------------3-------|
A|--0---0-0-0---0---0---0---0---0-0-0---0---0---0---|-0---0-0-0---0---0---0---0---0-0-0---0---0---0---|
E|--------------------------------------------------|-------------------------------------------------|

VoiceE|-------------------------------------------------------------------5--------------------------------|
H|--5--5---5--5-----7-------7-----5------5------------8----8--8--8-------------7----------------------|
G|----------------------------------------------------------------------------------------------------|
D|----------------------------------------------------------------------------------------------------|
A|----------------------------------------------------------------------------------------------------|
E| Tesno splelis\' v ob - ya - a - t\'yah, ih razlichit\' nel\' - zya! -----|
| | |
Gtr.1E|--------------------------------------------------|-------------------------------------------------|
H|--------------------------------------------------|-------------------------------------------------|
G|--5---------------5-------------------------------|-------------------------------------------------|
D|--5---------------5-------2---------------2-------|-----------------7-------4-----------------------|
A|--3---3-3-3---3---3---3---2---------------2-------|-3---3---3---3---5-------2------------pow. slide-|
E|--------------------------0---0-0-0---0---0---0---|-3---3---3---3---5----------------------/x\\------|
. . .
(1:41 - 2:05)
CHORUS:
VoiceE|------------------7-------------------------------------------------7-------------------------------|
H|----------------------8---7-----------8---------------------------------8---7-----------8-----------|
G|--9-------------------------------------------------9-----------------------------------------------|
D|----------------------------------------------------------------------------------------------------|
A|----------------------------------------------------------------------------------------------------|
E| Ya ne soshyol s u - ma, mir tak star i -----|
| | |
Gtr. E|--------------------------------------------------|-------------------------------------------------|
H|--------------------------------------------------|-------------------------------------------------|
G|-----------------/4-------------------------------|----------------/4-------------------------------|
D|----------------------5---4-----------5-----------|-5-------------------5---4-----------5-----------|
A|--2-----------------------------------------------|-3-----------------------------------------------|
E|--0-----------------------------------------------|-------------------------------------------------|

VoiceE|----------------------------------------------------------------------------------------------------|
H|--7---------------9---------------------------------7-----------7-----------7-----------------------|
G|------9---------------9---8-----------9---------------------9-----------9---------9-----------------|
D|----------------------------------------------------------------------------------------------------|
A|----------------------------------------------------------------------------------------------------|
E| ma - al, chto e - go de - lit\' net bol\' - she smys - la. ----------|
| | |
Gtr. E|--------------------------------------------------|-------------------------------------------------|
H|--------------------------------------------------|-------------------------------------------------|
G|--------------------------------------------------|-------------------------------------------------|
D|--6--------------/6-------------------------------|-2-----------4-----------5-----------------------|
A|--4-------------------7---6-----------7-----------|-0---0-0-0---2---2-2-2---3---3---0h2h3---3-------|
E|----------------------.---------------------------|-----------------------------------------1-------|

Net, ty voz\'mi se - be vsyo chto na Zem -
Gtr. E|--------------------------------------------------|-------------------------------------------------|
H|--------------------------------------------------|-------------------------------------------------|
G|-----------------/4-------------------------------|----------------/4-------------------------------|
D|----------------------5---4-----------5-----------|-5-------------------5---4-----------5-----------|
A|--2-----------------------------------------------|-3-----------------------------------------------|
E|--0-----------------------------------------------|-------------------------------------------------|

VoiceE|----------------------------------------------------------------------------------------------------|
H|--7---------------9---------------------------------7-----------7-------8---7-----------------------|
G|------9---------------9---8-----------9---------------------9---------------------9-----------------|
D|----------------------------------------------------------------------------------------------------|
A|----------------------------------------------------------------------------------------------------|
E| le - e, mne ostav\' pros - tor ne -bes - noy vy - si. ----------|
| | |
Gtr. E|--------------------------------------------------|-------------------------------------------------|
H|--------------------------------------------------|-------------------------------------------------|
G|--------------------------------------------------|-------------------------------------------------|
D|--6--------------/6-------------------------------|-2-----------4-----------5--------------A.H.-----|
A|--4-------------------7---6-----------7-----------|-0---0-0-0---2---2-2-2---3---3---0h3h5--~~~~--|
E|----------------------.---------------------------|-------------------------------------------------|
(2:06 - 2:30)
VERSE 2:
Luch - she byt\' od -no - mu vsyu zhizn\' chem nay-
Gtr.1E|--------------------------------------------------|-------------------------------------------------|
H|--------------------------------------------------|-------------------------------------------------|
G|--------------------------------------------------|-5-----------7-------5-------------------7-------|
D|--2-----------0-------2---------------------------|-5-----------5-------5-------------------7-------|
A|--2-----------0-------2-------------------0---2---|-3-----------3-------3-----------------------0---|
E|--0-------0-----------0-------------------.---.---|---------------------------------------------.---|
.
ti svoy dom i zhit\' v nem s kem po - pa - lo.
Gtr.1E|--------------------------------------------------|-------------------------------------------------|
H|--------------------------------------------------|-------------------------------------------------|
G|--2-----------4-----------5-----------7-----------|-------------0-----------------------0-----------|
D|--2-----------4-----------5-----------7-----------|---------2-------2---------------4-------4---0---|
A|----------0-----------0-----------0---------------|-----3---------------3-------5-------------------|
E|----------.-----------.-----------.---------------|-3-----------------------5-----------------------|
. . . . . . . .
Ty mol - chish\', ty ne pro - tiv lzhi, es -li
Gtr.1E|--------------------------------------------------|-------------------------------------------------|
H|--------------------------------------------------|-------------------------------------------------|
G|--------------------------------------------------|-5-----------7-------5-------------------7-------|
D|--2-----------0-------2---------------------------|-5-----------5-------5-------------------7-------|
A|--2-----------0-------2-------------------0---2---|-3-----------3-------3-----------------------0---|
E|--0-------0-----------0-------------------.---.---|---------------------------------------------.---|
.
v ney est\' zvon, zvon me - tal - la.
Gtr.1E|--------------------------------------------------|-------------------------------------------------|
H|--------------------------------------------------|-------------------------------------------------|
G|--5-----------5-----------5-----------5-----------|-------------------------------------------------|
D|--5-----------4-----------3-----------2-----------|-------------5-----------------------7-----3-----|
A|----------0-----------0-----------0---------------|-3---3---3-3-3-----------5---5---5-5-5---0-0-----|
E|----------.-----------.-----------.---------------|-3---3---3-3-3-----------5---5---5-5-5---.->-----|
. . . . > . . . . >
(2:30 - 2:54) BRIDGE
(2:54 - 3:18) CHORUS
(3:18 - 3:42)
RIFF 3:
Gtr.1E||-------------------------------------------------|-------------------------------------------------|
H||-------------------------------------------------|-------------------------------------------------|
G||-------------------------------------9---8---7---|-5-----------------------3-----------4-----------|
D||-2-----------------------------------9---8---7---|-5-----------------------3-----------4-----------|
A||-2-----------------------------------7---6---5---|-3-----------------------1-----------2-----------|
E||-0-----------------------------------------------|-------------------------------------------------|
. . . >
Gtr.1E|--------------------------------------------------|-------------------------------------------------||
H|--------------------------------------------------|-------------------------------------------------||
G|--------------------------------------------------|-------------------------------------------------||
D|--2-----------------------------------8---7---6---|-5-----------------------4-----------3-----------||
A|--2-----------------------------------8---7---6---|-5-----------------------4-----------3-----------||
E|--0-----------------------------------6---5---4---|-3-----------------------2-----------1-----------||
. . . >
(3:42 - 4:06)
RIFF 4:
Gtr.1E||-------------------------------------------------|-------------------------------------------------|
H||-------------------------------------------------|-------------------------------------------------|
G||-------------------------------------9---8---7---|-5-5---5-5---5-----------3-3---3-3---4-4---4-4---|
D||-2-2---2-2---2-----------2-2---2-2---9---8---7---|-5-5---5-5---5-----------3-3---3-3---4-4---4-4---|
A||-2-2---2-2---2-----------2-2---2-2---7---6---5---|-3-3---3-3---3---3-3-3-3-1-1---1-1---2-2---2-2---|
E||-0-0---0-0---0---0-0-0-0-0-0---0-0---------------|-------------------------------------------------|
Gtr.1E|--------------------------------------------------|-------------------------------------------------||
H|--------------------------------------------------|-------------------------------------------------||
G|--------------------------------------------------|-------------------------------------------------||
D|--2-2---2-2---2-----------2-2---2-2---8---7---6---|-5-5---5-5---5-----------4-4---4-4---3-3---3-3---||
A|--2-2---2-2---2-----------2-2---2-2---8---7---6---|-5-5---5-5---5-----------4-4---4-4---3-3---3-3---||
E|--0-0---0-0---0---0-0-0-0-0-0---0-0---6---5---4---|-3-3---3-3---3---3-3-3-3-2-2---2-2---1-1---1-1---||
SOLO:
(4:06 - 4:30)
PART A:
Lead E|--------------------------------------------------------------------------|
H|--10bend11----10^---10^---10^---10^---10^---10^-11r10p8-------------------|
G|--------------------------------------------------------9~~~~~~~~~~~~~~---|
D|-------------------------gradual release----------------------------------|
A|--------------------------------------------------------------------------|
E|--------------------------------------------------------------------------|
| |
Gtr.1E|--------------------------------------------------------------------------|
H|--------------------------------------------------------------------------|
G|--------------------------------------------------------9-----8-----7-----|
D|--2--2-----2--2-----2-----------------2--2-----2--2-----9-----8-----7-----|
A|--2--2-----2--2-----2-----------------2--2-----2--2-----7-----6-----5-----|
E|--0--0-----0--0-----0-----0--0--0--0--0--0-----0--0-----------------------|

Lead E|--------------------------------------------------------------------------|
H|--------------------------------------------------------------------------|
G|--12p11p9-h11h12----12p11p9-h11h12----12p11p9-h11h12----12p11p9-h11-8~~~~-|
D|--------------------------------------------------------------------------|
A|--------------------------------------------------------------------------|
E|--------------------------------------------------------------------------|
| |
Gtr.1E|--------------------------------------------------------------------------|
H|--------------------------------------------------------------------------|
G|--5--5-----5--5-----5-----------------3--3-----3--3-----4--4-----4--4-----|
D|--5--5-----5--5-----5-----------------3--3-----3--3-----4--4-----4--4-----|
A|--3--3-----3--3-----3-----3--3--3--3--1--1-----1--1-----2--2-----2--2-----|
E|--------------------------------------------------------------------------|

Lead E|--------------------------------------------------------------------------|
H|-----------15bend17....release--15----13----12----13-p12------------------|
G|----------------------slow-------------------------------14bend16~~~~~~~--|
D|---------------------release----------------------------------------------|
A|--------------------------------------------------------------------------|
E|--------------------------------------------------------------------------|
| |
Gtr.1E|--------------------------------------------------------------------------|
H|--------------------------------------------------------------------------|
G|--------------------------------------------------------------------------|
D|--2--2-----2--2-----2-----------------2--2-----2--2-----8-----7-----6-----|
A|--2--2-----2--2-----2-----------------2--2-----2--2-----8-----7-----6-----|
E|--0--0-----0--0-----0-----0--0--0--0--0--0-----0--0-----6-----5-----4-----|

Lead E|--------------------------------------------------------------------------|
H|--------------------------------------------------------------------------|
G|--0--0--0--0--0--0--0-h2--2--2--2--2--2-/4--4--4--4--4--4-/5--5--5--5--5--|
D|--------------------------------------------------------------------------|
A|--------------------------------------------------------------------------|
E|--------------------------------------------------------------------------|
| |
Gtr.1E|--------------------------------------------------------------------------|
H|--------------------------------------------------------------------------|
G|--------------------------------------------------------------------------|
D|--5--5-----5--5-----5-----------------4--4-----4--4-----3--3-----3--3-----|
A|--5--5-----5--5-----5-----------------4--4-----4--4-----3--3-----3--3-----|
E|--3--3-----3--3-----3-----3--3--3--3--2--2-----2--2-----1--1-----1--1-----|

Lead E|--------------------------------------10----10-10-10----15~~~~~~~~~-------|
H|--------------------------------------12----12-12-12----------------------|
G|--5-/7--7--7--7--7--7-/9--9--9--9--9--------------------------------------|
D|--------------------------------------------------------------------------|
A|--------------------------------------------------------------------------|
E|--------------------------------------------------------------------------|
| |
Gtr.1E|--------------------------------------------------------------------------|
H|--------------------------------------------------------------------------|
G|--------------------------------------------------------9-----8-----7-----|
D|--2--2-----2--2-----2-----------------2--2-----2--2-----9-----8-----7-----|
A|--2--2-----2--2-----2-----------------2--2-----2--2-----7-----6-----5-----|
E|--0--0-----0--0-----0-----0--0--0--0--0--0-----0--0-----------------------|

Lead E|--10----10----10----15b17~~~~~~~------17p15p12------------------------------|
H|--12----12----12----------------------------17p15p12------------------------|
G|--------------------------------------------------14p12p9-------------------|
D|--------------------------------------------------------14p12p9-------------|
A|--------------------------------------------------------------12----10h12p10|
E|--------------------------------------------------------------------------|
| |
Gtr.1E|--------------------------------------------------------------------------|
H|--------------------------------------------------------------------------|
G|--5--5-----5--5-----5-----------------3--3-----3--3-----4--4-----4--4-----|
D|--5--5-----5--5-----5-----------------3--3-----3--3-----4--4-----4--4-----|
A|--3--3-----3--3-----3-----3--3--3--3--1--1-----1--1-----2--2-----2--2-----|
E|--------------------------------------------------------------------------|

Lead E|-------------------------T-----12h15h17-17p15p12----------------------------|
H|------------T-----10/12h15-17p12h15----------------17p15p12--------------------|
G|--------9h12-14p9h12---------------------------------------14p12p9-14p12p9-------|
D|--------------------------------------------------------------------14p12p9-|
A|--------------------------------------------------------------------------|
E|-12-----------------------------------------------------------------------|
| |
Gtr.1E|--------------------------------------------------------------------------|
H|--------------------------------------------------------------------------|
G|--------------------------------------------------------------------------|
D|--2--2-----2--2-----2-----------------2--2-----2--2-----8-----7-----6-----|
A|--2--2-----2--2-----2-----------------2--2-----2--2-----8-----7-----6-----|
E|--0--0-----0--0-----0-----0--0--0--0--0--0-----0--0-----6-----5-----4-----|

Lead E|--------------------------12----14----15----17----15----17---17b19~~~~~~~-|
H|--------------------------------------------------------------------------|
G|--12~~~~~~~~~~~~~~~-------------------------------------------------------|
D|--------------------------------------------------------------------------|
A|--------------------------------------------------------------------------|
E|--------------------------------------------------------------------------|
| |
Gtr.1E|--------------------------------------------------------------------------|
H|--------------------------------------------------------------------------|
G|--------------------------------------------------------------------------|
D|--5--5-----5--5-----5-----------------4--4-----4--4-----3--3-----3--3-----|
A|--5--5-----5--5-----5-----------------4--4-----4--4-----3--3-----3--3-----|
E|--3--3-----3--3-----3-----3--3--3--3--2--2-----2--2-----1--1-----1--1-----|
(4:31 - 4:55)
PART B:
Gtr.2E|--------------------------------------------------|-------------------------------------------------|
Gtr.3H|--------------------------11----------12----------|-11bend12....release11---------------------------|
G|--9~~~~~~~~~~~~~----------11----------12----------|-11bend12....release11---------------------------|
D|--------------------------------------------------|-------------------------14----------13----------|
A|--------------------------------------------------|-------- slow release ---------------------------|
E|--------------------------------------------------|-------------------------------------------------|
| | |
Gtr.1E|--------------------------------------------------|-------------------------------------------------|
H|--------------------------------------------------|-------------------------------------------------|
G|----------R-----------------------R---------------|---------R-----------------------R---------------|
D|--2---2---E---------------5---5---E---------------|-2---2---E---------------5---5---E---------------|
A|--2---2---S---------------3---3---S-----------3-3-|-2---2---S---------------3---3---S---------------|
E|--0---0---T-----------0-0-3---3---T-----------3-3-|-0---0---T-----------0-0-3---3---T-----------0-0-|
. . . . . . . .

Gtr.2E|--------------------------------------------------|-------------------------------------------------|
Gtr.3H|--------------------------------------------------|-------------------------------------------------|
G|---------------------11---------------------------|-------------------------------------------------|
D|--14----------------------13b14....rel13~~~~~~~---|-10------------------9---------------9-----------|
A|--------------------------------------------------|-------------------------10----------------------|
E|--------------------------------------------------|-------------------------------------------------|
| | |
Gtr.1E|--------------------------------------------------|-------------------------------------------------|
H|--------------------------------------------------|-------------------------------------------------|
G|----------R-----------------------R---------------|---------R---------------------------------------|
D|--2---2---E---------------5---5---E---------------|-7---7---E-----------7---5-----------4-----------|
A|--2---2---S---------------3---3---S-----------3-3-|-7---7---S-----------7---5-----------4-----------|
E|--0---0---T-----------0-0-3---3---T-----------3-3-|-5---5---T-----------5---3-----------2-----------|
. . . .

Gtr.2E|--------------------------------------------------|-------------------------------------------------|
Gtr.3H|--------------------------11----------12----------|-11bend12....release11---------------------------|
G|--9~~~~~~~~~~~~~----------11----------12----------|-11bend12....release11---------------------------|
D|--------------------------------------------------|-------------------------14----------13----------|
A|--------------------------------------------------|-------------------------------------------------|
E|--------------------------------------------------|-------------------------------------------------|
| | |
Gtr.1E|--------------------------------------------------|-------------------------------------------------|
H|--------------------------------------------------|-------------------------------------------------|
G|----------R-----------------------R---------------|---------R-----------------------R---------------|
D|--2---2---E---------------5---5---E---------------|-2---2---E---------------5---5---E---------------|
A|--2---2---S---------------3---3---S-----------3-3-|-2---2---S---------------3---3---S---------------|
E|--0---0---T-----------0-0-3---3---T-----------3-3-|-0---0---T-----------0-0-3---3---T-----------0-0-|
. . . . . . . .

Gtr.2E|--------------------------------------------------|-------------------------------------------------|
Gtr.3H|--------------------------------------------------|-------------------------------------------------|
G|---------------------11---------------------------|-------------------------------------------------|
D|--14----------------------13b14....rel13~~~~~~~---|-10------------------9---------------------------|
A|--------------------------------------------------|-------------------------10----------9-----------|
E|--------------------------------------------------|-------------------------------------------------|
| | |
Gtr.1E|--------------------------------------------------|-------------------------------------------------|
H|--------------------------------------------------|-------------------------------------------------|
G|----------R-----------------------R---------------|---------R---------------------------------------|
D|--2---2---E---------------5---5---E---------------|-7---7---E-----------7---5-----------4-----------|
A|--2---2---S---------------3---3---S-----------3-3-|-7---7---S-----------7---5-----------4-----------|
E|--0---0---T-----------0-0-3---3---T-----------3-3-|-5---5---T-----------5---3-----------2-----------|
. . . .
(4:55 - 5:19) BRIDGE
(5:19 - 6:07) CHORUS (*2 times)
(5:19 - 6:20) half of RIFF 2

-------------------------------------------------------------------------------