.

( )

A                                                   

=================================
Ec xoe cpa a ao-y cye coe py Tribute to Aria, o o a aecee
a Ap. O pa a... y o co cyae e a aec :)
=================================
Tuning: full step down (e to d
H to A
G to F
D to C
A to G
E to D)
Measure size: 12/8
Tempo: moderately slow (103 bpm)
(0:01 - 0:07)
INTRO: (Gtr.1 - acoustic)
Bass Gbb|--------------9-----------------------------------|-------------------------------------------------|
Dbb|--------------------------9-----------7-----------|-------------------------------------------------|
Abb|--7-----------------------------------------------|-7-----------------------------------------------|
Ebb|--------------------------------------------------|-------------------------------------------------|
| | |
Gtr.1Ebb|--------------7---7-7-7-7-5---5-5-5-5-3---3-3-3-3-|-0---0-0-0-0-0---0-0-0-0-0---0-0-0-0-0---0-0-0-0-|
Hbb|--------------8---8-8-8-8-7---7-7-7-7-5---5-5-5-5-|-0---0-0-0-0-0---0-0-0-0-0---0-0-0-0-0---0-0-0-0-|
Gbb|--------------9---9-9-9-9-7---7-7-7-7-5---5-5-5-5-|-0---0-0-0-0-0---0-0-0-0-0---0-0-0-0-2---2-2-2-2-|
Dbb|--------------9---9-9-9-9-7---7-7-7-7-5---5-5-5-5-|-2---2-2-2-2-2---2-2-2-2-2---2-2-2-2-2---2-2-2-2-|
Abb|--------------------------------------------------|-2---2-2-2-2-2---2-2-2-2-2---2-2-2-2-2---2-2-2-2-|
Ebb|--------------------------------------------------|-0---0-0-0-0-0---0-0-0-0-0---0-0-0-0-0---0-0-0-0-|
(0:07 - 0:35)
VERSE 1:
VoiceEbb|----------------------------------------------------------------------------------------------------|
Hbb|----------------------------------------------------------------------------------------------------|
Gbb|---4----------------------------------4-------------------------------------------------------------|
Dbb|-------------------------------------------7----5---7---5--4----------------------------------------|
Abb|------------------------------------------------------------------------------------------------7---|
Ebb| Shtil\'. Ve - ter molchi - i -it. U- |
| | |
Gtr.1Ebb|--0---0-0-0-0-0---0-0-0-0-0---0-0-0-0-0---0-0-0-0-|-2---2-2-2-2-2---2-2-2-2-2h3-3-3-3-3-3p2-2-2-2-2-|
Hbb|--0---0-0-0-0-0---0-0-0-0-0---0-0-0-0-0---0-0-0-0-|-3---3-3-3-3-3---3-3-3-3-3---3-3-3-3-3---3-3-3-3-|
Gbb|--0---0-0-0-0-0---0-0-0-0-0---0-0-0-0-0---0-0-0-0-|-2---2-2-2-2-2---2-2-2-2-2---2-2-2-2-2---2-2-2-2-|
Dbb|--2---2-2-2-2-2---2-2-2-2-2---2-2-2-2-2---2-2-2-2-|-0---0-0-0-0-0---0-0-0-0-0---0-0-0-0-0---0-0-0-0-|
Abb|--2---2-2-2-2-2---2-2-2-2-2---2-2-2-2-2---2-2-2-2-|-------------------------------------------------|
Ebb|--0---0-0-0-0-0---0-0-0-0-0---0-0-0-0-0---0-0-0-0-|-------------------------------------------------|
| | |
Bass Gbb|--------------------------------------------------|-------------------------------------------------|
Dbb|--------------------------------------------------|-------------------------------------------------|
Abb|--------------------------------------------------|-5-----------------------------------------------|
Ebb|--0-----------------------------------------------|-------------------------------------------------|

VoiceEbb|----------------------------------------------------------------------------------------------------|
Hbb|----------------------------------------------------------------------------------------------------|
Gbb|----------------------------------------------------------------------------------------------------|
Dbb|---7----------------------------7---7-----7--5---4---5----------------------------------------------|
Abb|----------------------------------------------------------------------------------------------------|
Ebb| -pal be -loy chaykoy na dno. ---------------------|
| | |
Gtr.1Ebb|--0---0-0-0-0-0---0-0-0-0-0---0-0-0-0-0---0-0-0-0-|-0---0-0-0-0-0---0-0-0-0-0---0-0-0-0-0---0-0-0-0-|
Hbb|--1---1-1-1-1-1---1-1-1-1-1---1-1-1-1-1---1-1-1-1-|-0---0-0-0-0-0---0-0-0-0-0---0-0-0-0-0---0-0-0-0-|
Gbb|--2---2-2-2-2-2---2-2-2-2-2---2-2-2-2-2---2-2-2-2-|-0---0-0-0-0-0---0-0-0-0-0---0-0-0-0-2---2-2-2-2-|
Dbb|--2---2-2-2-2-2---2-2-2-2-2---2-2-2-2-2---2-2-2-2-|-2---2-2-2-2-2---2-2-2-2-2---2-2-2-2-2---2-2-2-2-|
Abb|--0---0-0-0-0-0---0-0-0-0-0---0-0-0-0-0---0-0-0-0-|-2---2-2-2-2-2---2-2-2-2-2---2-2-2-2-2---2-2-2-2-|
Ebb|--------------------------------------------------|-0---0-0-0-0-0---0-0-0-0-0---0-0-0-0-0---0-0-0-0-|
| | |
Bass Gbb|--------------------------------------------------|-------------------------------------------------|
Dbb|--------------------------------------------------|------------------------/5-----------------------|
Abb|--0---------------0---2---3-----------------------|-------------------------------------7-----------|
Ebb|--------------------------------------------------|-3-----------------------------------------------|

Shtil\'. Nash ko -ra -bl\' za -by - y -yt. O -
Gtr.1Ebb|--0---0-0-0-0-0---0-0-0-0-0---0-0-0-0-0---0-0-0-0-|-2---2-2-2-2-2---2-2-2-2-2h3-3-3-3-3-3p2-2-2-2-2-|
Hbb|--0---0-0-0-0-0---0-0-0-0-0---0-0-0-0-0---0-0-0-0-|-3---3-3-3-3-3---3-3-3-3-3---3-3-3-3-3---3-3-3-3-|
Gbb|--0---0-0-0-0-0---0-0-0-0-0---0-0-0-0-0---0-0-0-0-|-2---2-2-2-2-2---2-2-2-2-2---2-2-2-2-2---2-2-2-2-|
Dbb|--2---2-2-2-2-2---2-2-2-2-2---2-2-2-2-2---2-2-2-2-|-0---0-0-0-0-0---0-0-0-0-0---0-0-0-0-0---0-0-0-0-|
Abb|--2---2-2-2-2-2---2-2-2-2-2---2-2-2-2-2---2-2-2-2-|-------------------------------------------------|
Ebb|--0---0-0-0-0-0---0-0-0-0-0---0-0-0-0-0---0-0-0-0-|-------------------------------------------------|
| | |
Bass Gbb|--------------------------------------------------|-------------------------------------------------|
Dbb|--------------------------------------------------|-------------------------------------------------|
Abb|--------------------------------------------------|-5-----------------------------------------------|
Ebb|--0-----------------------------------------------|-------------------------------------------------|

-din v mi -re skovannym snom. Mezhdu
Gtr.1Ebb|--0---0-0-0-0-0---0-0-0-0-0---0-0-0-0-0---0-0-0-0-|-0---0-0-0-0-0---0-0-0-0-0---0-0-0-0-0---0-0-0-0-|
Hbb|--1---1-1-1-1-1---1-1-1-1-1---1-1-1-1-1---1-1-1-1-|-0---0-0-0-0-0---0-0-0-0-0---0-0-0-0-0---0-0-0-0-|
Gbb|--2---2-2-2-2-2---2-2-2-2-2---2-2-2-2-2---2-2-2-2-|-0---0-0-0-0-0---0-0-0-0-0---0-0-0-0-0---0-0-0-0-|
Dbb|--2---2-2-2-2-2---2-2-2-2-2---2-2-2-2-2---2-2-2-2-|-2---2-2-2-2-2---2-2-2-2-2---2-2-2-2-2---2-2-2-2-|
Abb|--0---0-0-0-0-0---0-0-0-0-0---0-0-0-0-0---0-0-0-0-|-2---2-2-2-2-2---2-2-2-2-2---2-2-2-2-2---2-2-2-2-|
Ebb|--------------------------------------------------|-0---0-0-0-0-0---0-0-0-0-0---0-0-0-0-0---0-0-0-0-|
| | |
Bass Gbb|--------------------------------------------------|-------------------------------------------------|
Dbb|--------------------------------------------------|-------------------------------------------------|
Abb|--0---------------0---2---3-----------------------|-----------------------------------------0---2---|
Ebb|--------------------------------------------------|-3-----------------------------------------------|
(0:35 - 0:49)
BRIDGE:
VoiceEbb|----------------------------------------------------------------------------------------------------|
Hbb|----------------------------------------------------------------------------------------------------|

Gbb|---------------------------------------------------4------------------------------------------------|
Dbb|---5----------5-----------5-------------------5--------7---7------------------------------------4---|
Abb|------------------------------------------7-------------------------------------------------7-------|
Ebb| vseh vre - men, bez i - men i litz, my u- |
| | |
Gtr.1Ebb|--0---0-0-0-0-0---0-0-0-0-0---0-0-0-0-0---0-0-0-0-|-0---0-0-0-0-0---0-0-0-0-0---0-0-0-0-0---0-0-0-0-|
Hbb|--1---1-1-1-1-1---1-1-1-1-1---1-1-1-1-1---1-1-1-1-|-3---3-3-3-3-3---3-3-3-3-3---3-3-3-3-3---3-3-3-3-|
Gbb|--0---0-0-0-0-0---0-0-0-0-0---0-0-0-0-0---0-0-0-0-|-2---2-2-2-2-2---2-2-2-2-2---2-2-2-2-2---2-2-2-2-|
Dbb|--2---2-2-2-2-2---2-2-2-2-2---2-2-2-2-2---2-2-2-2-|-0---0-0-0-0-0---0-0-0-0-0---0-0-0-0-0---0-0-0-0-|
Abb|--3---3-3-3-3-3---3-3-3-3-3---3-3-3-3-3---3-3-3-3-|-------------------------------------------------|
Ebb|--------------------------------------------------|-------------------------------------------------|
| | |
Bass Gbb|--------------------------------------------------|-------------------------------------------------|
Dbb|--------------------------------------------------|-------------------------------------------------|
Abb|--3-----------------------------------------------|-5---------------------------------------0---2---|
Ebb|--------------------------------------------------|-------------------------------------------------|

VoiceEbb|----------------------------------------------------------------------------------------------------|
Hbb|----------------------------------------------------------------------------------------------------|
Gbb|----------------------------------------------------4-----------------------------------------------|
Dbb|---5----------5-----------5-------------------5---------7---7---------------------------------------|
Abb|------------------------------------------7---------------------------------------------------------|
Ebb|-zhe ne zhdem, chto pros - netsya briz. ---------------------------------|
| | |
Gtr.1Ebb|--0---0-0-0-0-0---0-0-0-0-0---0-0-0-0-0---0-0-0-0-|-2---2-2-2-2-2---2-2-2-2-2---2-2-2-2-2---2-2-2-2-|
Hbb|--1---1-1-1-1-1---1-1-1-1-1---1-1-1-1-1---1-1-1-1-|-3---3-3-3-3-3---3-3-3-3-3---3-3-3-3-3---3-3-3-3-|
Gbb|--0---0-0-0-0-0---0-0-0-0-0---0-0-0-0-0---0-0-0-0-|-2---2-2-2-2-2---2-2-2-2-2---2-2-2-2-2---2-2-2-2-|
Dbb|--2---2-2-2-2-2---2-2-2-2-2---2-2-2-2-2---2-2-2-2-|-0---0-0-0-0-0---0-0-0-0-0---0-0-0-0-0---0-0-0-0-|
Abb|--3---3-3-3-3-3---3-3-3-3-3---3-3-3-3-3---3-3-3-3-|-------------------------------------------------|
Ebb|--------------------------------------------------|-------------------------------------------------|
| | |
Bass Gbb|--------------------------------------------------|-------------------------------------------------|
Dbb|--------------------------------------------------|-------------------------------------------------|
Abb|--3---------------------------------------0---3---|-2-----------------------------------------------|
Ebb|--------------------------------------------------|-------------------------5-----------2-----------|
(0:49 - 1:17)
VERSE 2:
Em D Dsus4 D
Shtil\'. Sho - dim s u - ma - a -a. Zha-
Bass Gbb|--------------------------------------------------|-------------------------------------------------|
Dbb|----------2---5-------2-----------2-2-5-------2---|-------------4-----------------------4-----------|
Abb|--------2-----------------2-----2-----------------|-5-------5-----------5-----------5-5---------5---|
Ebb|--0-----------------------------------------------|-------5-----------------5-----5-----------------|

Am Em Esus4
-ra pah -net chernoy smoloy.
Bass Gbb|----------2---5-------2-----------2-2-5-------2---|-------------------------------------------------|
Dbb|--------2-----------------2-----2-----------------|---------2---5-------2---------------------------|
Abb|--0-----------------------------------------------|-------2-----------------2-----------------------|
Ebb|--------------------------------------------------|-0-----------------------------------5-------3---|
...
(1:17 - 1:31)
BRIDGE 2: (Gtr.2 - electric w/distortion)
plot\' i krov\' vnov\' na - sytit nas. A za
Gtr.2Ebb|--------------------------------------------------|-------------------------------------------------|
Hbb|--------------------------------------------------|-------------------------------------------------|
Gbb|--5-----------------------5-----------------------|-7-----------------------7/9-9-9-9---9\\7-7-7-7---|
Dbb|--5-----------------------5-----------------------|-7-----------------------7/9-9-9-9---9\\7-7-7-7---|
Abb|--3-----------------------3-----------------------|-5-----------------------5/7-7-7-7---7\\5-5-5-5---|
Ebb|--------------------------------------------------|-------------------------------------------------|
smert\' ye - mu mo - zhet Bog vozdast.
Gtr.2Ebb|--------------------------------------------------|-------------------------------------------------|
Hbb|--------------------------------------------------|-------------------------------------------------|
Gbb|--5-----------------------5-----------------------|-4-----------------------------------------------|
Dbb|--5-----------------------5-----------------------|-4-----------------------------------------------|
Abb|--3-------------------3-3-3-----------------------|-2-----------------------------------0h1h2-------|
Ebb|----------------------.-.->-----------------------|---------------------------------------------3---|
(1:31 - 1:59)
CHORUS:
VoiceEbb|-------------------------------------------5---7----8-----------------------7-----------5-----------|
Hbb|--5-----------7-----------8-----------8-------------------------7-----------------------------------|
Gbb|----------------------------------------------------------------------------------------------------|
Dbb|----------------------------------------------------------------------------------------------------|
Abb|----------------------------------------------------------------------------------------------------|
Ebb| Chto nas zhdet, mo - re hra - nit mol - cha - n\'e ---------|
| | |
Gtr.2Ebb|--------------------------------------------------|-------------------------------------------------|
Hbb|--------------------------------------------------|-------------------------------------------------|
Gbb|--------------------------------------------------|-------------------------------------------------|
Dbb|----------2-----------4-----------5---------------|-------------------------------------------------|
Abb|----------2-----------4-----------5-----------2---|-3-----------------------2-----------------------|
Ebb|--0-0-0-0-0---2-2-2-2-2---3-3-3-3-3---3---5-------|-------------2~~~~~~-----------------3~~~~~~-----|
. . . . > . . . . > . . . . > . . . >

VoiceEbb|-------------------------------------------5---7----8-----------8-----------7-----------------------|
Hbb|--5-----------7-----------8-----------8-------------------------------------------------------------|
Gbb|----------------------------------------------------------------------------------------------------|
Dbb|----------------------------------------------------------------------------------------------------|
Abb|----------------------------------------------------------------------------------------------------|
Ebb| Zhazh - da zhit\' su -shit serdtza do dna. -----------------|
| | |
Gtr.2Ebb|--------------------------------------------------|-------------------------------------------------|
Hbb|--------------------------------------------------|-------------------------------------------------|
Gbb|--------------------------------------------------|-------------------------------------------------|
Dbb|----------2-----------4-----------5---------------|-------------------------------------------------|
Abb|----------2-----------4-----------5-----------2---|-3-----------------------2-----------0h1h2-------|
Ebb|--0-0-0-0-0---2-2-2-2-2---3-3-3-3-3---3---5-------|-------------2~~~~~~-------------------------3---|

Tol\' - ko zhizn\' zdes\' niche - go ne sto - it
Gtr.2Ebb|--------------------------------------------------|-------------------------------------------------|
Hbb|--------------------------------------------------|-------------------------------------------------|
Gbb|--------------------------------------------------|-------------------------------------------------|
Dbb|----------2-----------4-----------5---------------|-------------------------------------------------|
Abb|----------2-----------4-----------5-----------2---|-3-----------------------2-----------------------|
Ebb|--0-0-0-0-0---2-2-2-2-2---3-3-3-3-3---3---5-------|-------------2~~~~~------------------3~~~~~------|

VoiceEbb|--------------------------------------8---7----5----7-----------------------------------------------|
Hbb|--5-----------7-----------8-------------------------------------------------------------------------|
Gbb|----------------------------------------------------------------------------------------------------|
Dbb|----------------------------------------------------------------------------------------------------|
Abb|----------------------------------------------------------------------------------------------------|
Ebb| Zhizn\' dru - gih, no ne tvo - ya! -----------------------------------------|
| | |
Gtr.2Ebb|--------------------------------------------------|-------------------------------------------------|
Hbb|--------------------------------------------------|-------------------------------------------------|
Gbb|--------------------------------------------------|-5-----------------------4-----------------------|
Dbb|----------2-----------4-----------5---------------|-5-----------4-----------4-----------------------|
Abb|----------2-----------4-----------5-----------2---|-3-----------4-----------2-----------------------|
Ebb|--0-0-0-0-0---2-2-2-2-2---3-3-3-3-3---3---5-------|-------------2-----------------------------------|
(1:59 - 2:27) VERSE 3 like verse 2
(2:28 - 2:41) BRIDGE 2
(2:42 - 3:09) CHORUS
(3:10 - 3:37)
BASS RIFF: (*2 times)
Bass Gbb||-------------------------------------------------|-------------------------------------------------|
Dbb||-------------------------------------------------|-------------------------------------------------|
Abb||-12h14---------10h12---------9h10---------7h9---------|-----3-----------3---3---3---3---3---3---3---3---|
Ebb||-----0---0-------0---0-------0---0-------0---0---|-0h3---------------------------------------------|
Bass Gbb|--------------------------------------------------|-------------------------------------------------||
Dbb|--7h9---------5h7---------4h5---------2h4---------|-------------------------------------------------||
Abb|------0---0-------0---0-------0---0-------0---0---|-------------------------------------------------||
Ebb|--------------------------------------------------|-3-2-0-----------0---0---0---0---0---0---0---0---||
SOLO:
(3:38 - 4:05)
PART A:
Lead Ebb|--7-----------------7-----------------7-----------------7-----------------|
Hbb|--10b12-------------10b12-------------10b12-------------10b12-------------|
Gbb|--------------------------------------------------------------------------|
Dbb|--------------------------------------------------------------------------|
Abb|--------------------------------------------------------------------------|
Ebb|--------------------------------------------------------------------------|
| |
Bass Gbb|--------------------------------------------------------------------------|
+ Dbb|--------------------------------------------------------------------------|
Gtr.2Abb|--12h14-------------10h12-------------9h10--------------7-h9--------------|
Ebb|--------0-----0-----------0-----0-----------0-----0-----------0-----0-----|

Lead Ebb|--8-----------------10----------------12----------------------------------|
Hbb|--11b13-------------13b15-------------15b17-------------------------------|
Gbb|--------------------------------------------------------------------------|
Dbb|--------------------------------------------------------------------------|
Abb|--------------------------------------------------------------------------|
Ebb|--------------------------------------------------------------------------|
| |
Bass Gbb|--------------------------------------------------------------------------|
+ Dbb|--------------------------------------------------------------------------|
Gtr.2Abb|--------3-----------------3-----3-----3-----3-----3-----3-----3-----3-----|
Ebb|--0-h3--------------------------------------------------------------------|

Lead Ebb|--12----------------------------------------------------------------------|
Hbb|-----15-12----------12----------------------------------------------------|
Gbb|-----------14-12-------14-12----------12----------------------------------|
Dbb|-----------------14----------14-12-------14-12----------------------------|
Abb|-----------------------------------14----------14-12\\10-10---12----~~-|
Ebb|--------------------------------------------------------------------------|
| |
Bass Gbb|--------------------------------------------------------------------------|
+ Dbb|--7-h9--------------5-h7--------------4-h5--------------2-h4--------------|
Gtr.2Abb|--------0-----0-----------0-----0-----------0-----0-----------0-----0-----|
Ebb|--------------------------------------------------------------------------|

Lead Ebb|--------------------------------------------------------------------------|
Hbb|-------------------------------------------------------8b10rel8~~~~~~~----|
Gbb|--------------------------------------9-----------------------------------|
Dbb|--------------------------------7h9h10--------9-h10-----------------------|
Abb|--10p9-p7---------------------7-------------------------------------------|
Ebb|--------------------------------------------------------------------------|
| |
Bass Gbb|--------------------------------------------------------------------------|
+ Dbb|--------------------------------------------------------------------------|
Gtr.2Abb|--------------------------------------------------------------------------|
Ebb|--3--2--0-----------------0-----0-----0-----0-----0-----0-----0-----0-----|

Lead Ebb|--7-----------------7-----------------7-----------------7-----------------|
Hbb|--10b12-------------10b12-------------10b12-------------10b12-------------|
Gbb|--------------------------------------------------------------------------|
Dbb|--------------------------------------------------------------------------|
Abb|--------------------------------------------------------------------------|
Ebb|--------------------------------------------------------------------------|
Lead Ebb|--8-----------------10----------------12----------------------------------|
Hbb|--11b13-------------13b15-------------15b17-------------------------------|
Gbb|--------------------------------------------------------------------------|
Dbb|--------------------------------------------------------------------------|
Abb|--------------------------------------------------------------------------|
Ebb|--------------------------------------------------------------------------|
Lead Ebb|--12----------12----15----------15----15----------15----15bf--15----14----|
Hbb|-----13-12-13----13----13-12-13----13----13-12-13----13-------------------|
Gbb|--------------------------------------------------------------------------|
Dbb|--------------------------------------------------------------------------|
Abb|--------------------------------------------------------------------------|
Ebb|--------------------------------------------------------------------------|
T T T T T T
Lead Ebb|--15p14p12~~~~~~~~~-------------------17p15p12------------------------------|
Hbb|--------------------------------------------17p15p12-17p15p12-----------------|
Gbb|---------------------------------------------------------14p12p9-14p12p9------|
Dbb|--------------------------------------------------------------------14p12p9-|
Abb|--------------------------------------------------------------------------|
Ebb|--------------------------------------------------------------------------|
(4:05 - 4:20)
PART B:
Lead Ebb|--------------------------------------------------|-------------------------------------------------|
Hbb|--12----------10----------------------------------|-12----------10------------------------------10--|
Gbb|--12----------11----------12----------11----------|-12----------11----------12----------11--12--11--|
Dbb|--------------------------14----------12----------|-------------------------14----------12--14------|
Abb|--------------------------------------------------|-------------------------------------------------|
Ebb|--------------------------------------------------|-------------------------------------------------|
| | |
Gtr.2Ebb|--------------------------------------------------|-------------------------------------------------|
Hbb|--------------------------------------------------|-------------------------------------------------|
Gbb|--5-----------------------5-----------------------|-7-----------------------9-----------7-----------|
Dbb|--5-----------------------5-----------------------|-7-----------------------9-----------7-----------|
Abb|--3-------------------3-3-3-----------------------|-5-----------------------7-----------5-----------|
Ebb|----------------------.-.->-----------------------|-------------------------------------------------|

Lead Ebb|--------------------------------------------------|-------------------------------------------------|
Hbb|--12----------10----------12----------13----------|-15~~~~~~~~~~~~~~~~~~~~~~~~----------------------|
Gbb|--12----------11----------12----------14----------|-16~~~~~~~~~~~~~~~~~~~~~~~~----------------------|
Dbb|--------------------------------------------------|-------------------------------------------------|
Abb|--------------------------------------------------|-------------------------------------------------|
Ebb|--------------------------------------------------|-------------------------------------------------|
| | |
Gtr.2Ebb|--------------------------------------------------|-------------------------------------------------|
Hbb|--------------------------------------------------|-------------------------------------------------|
Gbb|--5-----------------------5-----------------------|-4-----------------------------------------------|
Dbb|--5-----------------------5-----------------------|-4-----------------------------------------------|
Abb|--3-------------------3-3-3-----------------------|-2---2---2---2---2---2---2---2---2---2---2---2---|
Ebb|----------------------.-.->-----------------------|-------------------------------------------------|
(4:20 - 4:48) choir CHORUS
(4:48 - 5:16) CHORUS
(5:16 - 5:25)
OUTRO:
Bass Gbb|-------------------------------------------------|-------------------------------------------------|
Dbb|-------------------------------------------------|-------------------------------------------------|
Abb|-12h14---------10h12---------9h10---------7h9---------|-----3-------------------------------------------|
Ebb|-----0---0-------0---0-------0---0-------0---0---|-0h3---------------------------------------------|
--------------------------------------------------------------------------------