.

( )

A                                                   

AP - ec

Intro:

E-----------------------------------|-------------------------------------|

H-----------------------------------|-------------------------------------|

G--9--999--9-9-9-9-9-9--------------|--8--888--8-8-8-8-8-8-8-8------------|

D--9--999--9-9-9-9-9-9--------------|--8--888--8-8-8-8-8-8-8-8------------|

A--7--777--7-7-7-7-7-7--10--9--7----|--6--666--6-6-6-6-6-6-6-6------------|

E-----------------------------------|----------------------------7--------|

E-----------------------------------|-------------------------------------|

H-----------------------------------|-------------------------------------|

G--9--999--9-9-9-9------------------|--8--888--8-8-8----------------------|

D--9--999--9-9-9-9------------------|--8--888--8-8-8--9-10-9h10p9-7-------|

A--7--777--7-7-7-7--7--9--10--9--7--|--6--666--6-6-6----------------10-9--|

E-----------------------------------|-------------------------------------|

E-------------------------------------------------------------------------|

H-------------------------------------------------------------------------|

G-------------------------------------------------------------------------|

D--9--xxxx--9----7--xxxx--7----5--xxxx--5-----7----7----7----7------------|

A--9--xxxx--9----7--xxxx--7----5--xxxx--5-----7----7----7----7------------|

E--7--xxxx--7----5--xxxx--5----3--xxxx--3---5-5--5-5--5-5--5-5------------|

E--------------------------------------------------||

H--------------------------------------------------||

G------------------------------------------------*-||

D--9--xxxx--9----7--xxxx--7----5--xxxx--5---7----*-||

A--9--xxxx--9----7--xxxx--7----5--xxxx--5---7------||

E--7--xxxx--7----5--xxxx--5----3--xxxx--3---5------||

E---------------------------------------------------------------------|

H---------------------------------------------------------------------|

G--7--xxx--7-7-7---7--xxx--7-7-7---7--xxx--7-7-7----------------------|

D--7--xxx--7-7-7---7--xxx--7-7-7---7--xxx--7-7-7---7--7h8p7--5--------|

A--5--xxx--5-5-5---5--xxx--5-5-5---5--xxx--5-5-5----------------8--7--|

E---------------------------------------------------------------------|

 

I Verse :

a e co c ya e c eya cpoca e

E-------------------------------------------------------------------|

H-------------------------------------------------------------------|

G--7--xxx--7-7-9-10--xxx--10-10-10----------------------------------|

D--7--xxx--7-7-9-10--xxx--10-10-10--9--xxx--9-9-9-7--xxx--7-7-7-----|

A--5--xxx--5-5-7-8---xxx--8--8--8---9--xxx--9-9-9-7--xxx--7-7-7-----|

E-----------------------------------6--xxx--6-6-6-5--xxx--5-5-5-----|

a e xo pa coa o co opa ce

E-------------------------------------------------------------------|

H-------------------------------------------------------------------|

G--7--xxx--7-7-9-10--xxx--10-10-10-------------------9----9---------|

D--7--xxx--7-7-9-10--xxx--10-10-10--9--xxx--9-9-9----9----9---------|

A--5--xxx--5-5-7-8---xxx--8--8--8---9--xxx--9-9-9----7----7---------|

E-----------------------------------6--xxx--6-6-6--8----8-----------|

ec yxoo ee ecoea cpac op

E---------------------------------------------------------------------|

H---------------------------------------------------------------------|

G--------------------------------------------5--xxx--5-5-5------------|

D--3--xxx--3-3-4-5--xxx--5-5-5-8--xxx--8-8-8-5--xxx--5-5-5------------|

A--3--xxx--3-3-4-5--xxx--5-5-5-8--xxx--8-8-8-3--xxx--3-3-3------------|

E--1--xxx--1-1-2-3--xxx--3-3-3-6--xxx--6-6-6--------------------------|

oyx y a e C ae po oe cy

E---------------------------------------------------------------------|

H---------------------------------------------------------------------|

G----------------------------------------------5---3------------------|

D--3--xxx--3-3-4-5--xxx--5-5-5-8--xxx--8-8-8---5---3------------------|

A--3--xxx--3-3-4-5--xxx--5-5-5-8--xxx--8-8-8---3---1------------------|

E--1--xxx--1-1-2-3--xxx--3-3-3-6--xxx--6-6-6--------------------------|

 

Chorus :

ec ec ce e e - e

ec ec ye oe - e -

E----------------------------|---------------------------------------|

H----------------------------|---------------------------------------|

G----------------------------|--7----------5----------3--------------|

D--8--5----------------------|--7----------5------8---3--------------|

A--8--5---4--3--4--3--1------|--5----------3------8---5--------------|

E--6--3------------------4---|--------------------6------------------|

- eeeeeeeeeeeeeeeeeeeeeeeeeeeeeeeeeeeeeeeeee

E---------------------------------------------------------------------|

H---------------------------------------------------------------------|

G--7--xxx--7-7-7---7--xxx--7-7-7---7--xxx--7-7-7----------------------|

D--7--xxx--7-7-7---7--xxx--7-7-7---7--xxx--7-7-7---7--7h8p7--5--------|

A--5--xxx--5-5-5---5--xxx--5-5-5---5--xxx--5-5-5----------------8--7--|

E---------------------------------------------------------------------|

II Verse .

ec cee oy

pa epae e o

aa apoc py

e cax o oo

Co pepaa

Kpy acoe oeco

C aeo cy

oo Xpcy o

II Verse .

Chorus :

ec ec ce e e - e

ec ec ye oe - e -

E----------------------------|---------------------------------------|

H----------------------------|---------------------------------------|

G----------------------------|--7----------5----------3--------------|

D--8--5----------------------|--7----------5------8---3--------------|

A--8--5---4--3--4--3--1------|--5----------3------8---5--------------|

E--6--3------------------4---|--------------------6------------------|

- eeeeeeeeeeeeeeeeee.....

E----------------------------|---------------------------------| solo

gtr1. H---10------------10-8---10--|--10------------10-8--6-10---8---|

gtr2. G---10--10-----10-10-7---9---|--10--10-----10-10-7--7--9---7---|

D-------10--10-10------------|------10--10-10------------------|

A-----------10---------------|----------10---------------------|

E----------------------------|---------------------------------|

E---8------------8-----8-----|---------------------------------|

H---9--9---------9-11--8-----|---------------------------------|

G------10-----10---12--------|---------------------------------|

D----------10-10-------------|---------------------------------|

A----------10----------------|---------------------------------|

E----------------------------|---------------------------------|

Verse III.

oco! e o

x e oy

pyo e cyo

A xoo e e

a e co c ya

e c eya cpoca e

a e xo pa coa

o co opa ce.