.

( )

A                                                   

intro, verse:
1|----10-|----10-|----5-|----4-|
2|---10--|---9---|---6--|---5--|
3|--10---|--9----|--7---|--7---|
4|-0-----|-0-----|-0----|-0----|
5|-------|-------|------|------|
6|-------|-------|------|------|
(2 paa)
Bb A
1|----3---3---|------------|----3---3---|-6--5-|
2|---3-----3--|----6---6---|---3-----3--|-6--5-|
3|--3-------3-|---7-----7--|--3-------3-|-7--6-|
4|-5----------|--7---6---6-|-5----------|-8--7-|
5|------4-----|-5----------|------4-----|-8--7-|
6|------------|------------|------------|-6--5-|
Cea o ea y o e ycae a opo.
poy o oy a o ce, o e oo e e.
ya o poe co, a y a ypo,
A epaax aec ppa, ppa .
Dm F
p-: o oe cepe, o o yy,
Gm C
a oo o ac, o xoy yepe.
e eya ec, co p papy,
o e ae oo cea a xooo ape.
intro:...
yepa o e, e o oe,
cep ye ep pa: ee ee p.
ox aax aca o, pae ee c oo,
A epaax aec ppa, ppa .
p-:...
F Bb C F Bb C
cy ype ooo, o ca pa,
F Bb C Dm C
ce e ooo, eep apce eoo ca.
cy ype ooo, o eco pa,
oo eo pacooo, a ee e.
o oe cepe.
intro:... D