.

( )

A                                                   


Tempo: moderately (142 bpm)

INTRO:

(0:01 - 0:26)

RIFF 1: (Gtr.1 & Gtr.2 - both distorted)

Gtr.1E|--------------------------|-------------------------|-------------------------|-------------------------|

H|--------------------------|-------------------------|-------------------------|-------------------------|

G|--------------4-----------|-2-----------------------|----------2--4-----2-----|-------------------------|

D|--2-----------------------|----5--4--5-----4--2-----|-2--4--5--.-----------5--|-4--5--4-----2-----------|

A|--------------------------|-------------------------|-.--.--.-----------------|-------------------5-----|

E|--------------------------|-------------------------|-------------------------|-------------------------|

| | | | |

Gtr.2E|--------------------------|-------------------------|-------------------------|-------------------------|

H|--------------------------|-------------------------|-------------------------|-------------------------|

G|--------------------------|-------------------------|-------------------------|-------------------------|

D|--2----------/5-----------|-4--2-----2--------------|-2-----2--4--5-----4--2--|----2--------------------|

A|--------------------------|-------5--------5--2-----|----5--------------------|-5-----5-----3-----2-----|

E|--------------------------|-------------------------|-------------------------|-------------------------|

Gtr.1E|--------------------------|-------------------------|------------A.H.---------|-------------------------|

H|--------------------------|-------------------------|----------------------|-------------------------|

G|--------------4-----------|-2-----------------------|-0--2--4--5--------5--4--|-2--4--2-----------------|

D|--2-----------------------|----5--4--5-----4--2-----|-.--.--.--.--------------|-------------5-----4-----|

A|--------------------------|-------------------------|-------------------------|-------------------------|

E|--------------------------|-------------------------|-------------------------|-------------------------|

| | | | |

Gtr.2E|--------------------------|-------------------------|-------------------------|-------------------------|

H|--------------------------|-------------------------|-------------------------|-------------------------|

G|--------------------------|-------------------------|----------2--4-----2-----|-------------------------|

D|--2----------/5-----------|-4--2-----2--------------|-2--4--5--------------5--|-4--5--4-----2-----------|

A|--------------------------|-------5--------5--2-----|-------------------------|-------------------5-----|

E|--------------------------|-------------------------|-------------------------|-------------------------|

Gtr.1E|--------------------------|-------------------------|------------A.H.---------|-------------------------|

H|--------------------------|-3-----------------------|----------------------|-------------------------|

G|--------------4-----------|----5--4--5-----4--2-----|-0--2--4--5--------5--4--|-2--4--2-----------------|

D|--2-----------------------|-------------------------|-.--.--.--.--------------|-------------5-----4-----|

A|--------------------------|-------------------------|-------------------------|-------------------------|

E|--------------------------|-------------------------|-------------------------|-------------------------|

| | | | |

Gtr.2E|--------------------------|-------------------------|-------------------------|-------------------------|

H|--------------------------|-------------------------|-------------------------|-------------------------|

G|--------------------------|-4--2-----2--------------|----------2--4-----2-----|-------------------------|

D|--2----------/5-----------|-------5--------5--4-----|-2--4--5--------------5--|-4--5--4-----2-----------|

A|--------------------------|-------------------------|-------------------------|-------------------5-----|

E|--------------------------|-------------------------|-------------------------|-------------------------|

Gtr.1E|--------------------------|-------------------------|-------------------------|-------------------------|

H|--------------------------|-------------------------|-------------------------|-------------------------|

G|--------------4-----------|-2-----------------------|----------2--4-----2-----|-------------------------|

D|--2-----------------------|----5--4--5-----4--2-----|-2--4--5--.-----------5--|-4--5--4-----2-----------|

A|--------------------------|-------------------------|-.--.--.-----------------|-------------------5-----|

E|--------------------------|-------------------------|-------------------------|-------------------------|

| | | | |

Gtr.2E|--------------------------|-------------------------|-------------------------|-------------------------|

H|--------------------------|-------------------------|-------------------------|-------------------------|

G|--------------------------|-------------------------|-------------------------|-------------------------|

D|--2----------/5-----------|-4--2-----2--------------|-2-----2--4--5-----4--2--|----2--------------------|

A|--------------------------|-------5--------5--2-----|----5--------------------|-5-----5-----3-----2-----|

E|--------------------------|-------------------------|-------------------------|-------------------------|

(0:27 - 0:41)

RIFF 2 (play 2 times): (Gtr.3 & Gtr.4 - both clean acoustic. Meanwhile, distorted guitars hold E5 and then fade out)

Gtr.3E||-------------------------|-------------------------|-------------------------|-------------------------||

H||-0--------0--------0-----|-1--------1--------1-----|-0--------0--------0-----|-1--------1--------------||

G||----0--------0--------0--|----0--------0--------0--|----0--------0--------0--|----0--------0-----------||

D||-------2--------2--------|-------2--------2--------|-------2--------2--------|-------2-----------------||

A||-------------------------|-------------------------|-------------------------|-------------------------||

E||-------------------------|-------------------------|-------------------------|-------------------------||

|| | | | ||

Gtr.4E||-------------------------|-------------------------|-------------------------|-------------------------||

H||-------------------------|-------------------------|-------------------------|-------------------------||

G||-------------------------|-------------------------|-------------------------|-------------------------||

D||-2-----------2-----2-h4--|-2-----------2-----2-h4--|-2-----------2-----2-h4--|-2-----------2-----------||

A||----2-----2-----2--------|----3-----3-----3--------|----2-----2-----2--------|----3-----3--------------||

E||-------0-----------------|-------0-----------------|-------0-----------------|-------0-----------------||

(0:41 - 1:09)

VERSE 1:

VoiceE|--------------------------------------------------------------------------------------------------------|

H|--------------------------------------------------------------------------------------------------------|

G|--------------------------------------------------------------------------------------------------------|

D|--2---2-2--0--2-2---2--0----2-----0-----2------------2---2-2--0-2---2---2--4----5-----4-----5-----------|

A|----------------------------------------------2---------------------------------------------------------|

E| Na krayu obryva, za ko - to - rym vech- nost\', ty stoish odin vo vlasti stran - nyh grez ----|

| | | | |

Gtr.3E|--------------------------|-------------------------|-------------------------|-------------------------|

H|--0--------0--------0-----|-1--------1--------1-----|-0--------0--------0-----|-1--------1--------------|

G|-----0--------0--------0--|----0--------0--------0--|----0--------0--------0--|----0--------0-----------|

D|--------2--------2--------|-------2--------2--------|-------2--------2--------|-------2-----------------|

A|--------------------------|-------------------------|-------------------------|-------------------------|

E|--------------------------|-------------------------|-------------------------|-------------------------|

| | | | |

Gtr.4E|--------------------------|-------------------------|-------------------------|-------------------------|

H|--------------------------|-------------------------|-------------------------|-------------------------|

G|--------------------------|-------------------------|-------------------------|-------------------------|

D|--2-----------2-----2-h4--|-2-----------2-----2-h4--|-2-----------2-----2-h4--|-2-----------2-----------|

A|-----2-----2-----2--------|----3-----3-----3--------|----2-----2-----2--------|----3-----3--------------|

E|--------0-----------------|-------0-----------------|-------0-----------------|-------0-----------------|

VoiceE|--------------------------------------------------------------------------------------------------------|

H|--------------------------------------------------------------------------------------------------------|

G|-------------------------------------------------------------------------2--4----2----------------------|

D|-2--2--2--0---2-2----2--0----2----0-----2-----4-----5-5--5----5--5--5-----------------------------------|

A|--------------------------------------------------------------------------------------------------------|

E| i, prostivshis\' s mirom, hochesh\' stat\' bes - pech- nym, poigrat\' s ognem nezdeshnih groz. ------------|

| | | | |

Gtr.3E|--------------------------|-------------------------|-------------------------|-------------0-----------|

H|--0--------0--------0-----|-1--------1--------1-----|-0--------0--------0-----|-3--------3--3--^--------|

G|-----0--------0--------0--|----0--------0--------0--|----0--------0-----------|----2--------2--|--------|

D|--------2--------2--------|-------2--------2--------|-------0--------0-----0--|-------0--------|--------|

A|--------------------------|-------------------------|-------------------------|-------------------------|

E|--------------------------|-------------------------|-------------------------|-------------------------|

| | | | |

Gtr.4E|--------------------------|-------------------------|-------------------------|-------------------------|

H|--------------------------|-------------------------|-------------------------|-------------------------|

G|--------------------------|-------------------------|-------------------------|-------------------------|

D|--2-----------2-----2-h4--|-2-----------2-----2-h4--|-0-----------0-----0-----|-0-----------0-----------|

A|-----2-----2-----2--------|----3-----3-----3--------|----2-----2--------------|----0-----0--------------|

E|--------0-----------------|-------0-----------------|-------3--------3--------|-------2-----------------|

VoiceE|--------------------------------------------------------------------------------------------------------|

H|--------------------------------------------------------------------------------------------------------|

G|--------------------------------------------------------------------------------------------------------|

D|--2-2-2---0----2---2---2---0--2---0-----2-------------2--2----2-0--2----2--2--4-5-----4-----5-----------|

A|----------------------------------------------2---------------------------------------------------------|

E| Nakonec ty schastliv kak nikto na sve - te, angel\'skaya pyl\' tebya uno - sit vverh. ---|

| | | | |

Gtr.3E|--------------------------|-------------------------|-------------------------|-------------------------|

H|--0--------0--------0-----|-1--------1--------1-----|-0--------0--------0-----|-1--------1--------------|

G|-----0--------0--------0--|----0--------0--------0--|----0--------0--------0--|----0--------0-----------|

D|--------2--------2--------|-------2--------2--------|-------2--------2--------|-------2-----------------|

A|--------------------------|-------------------------|-------------------------|-------------------------|

E|--------------------------|-------------------------|-------------------------|-------------------------|

| | | | |

Gtr.4E|--------------------------|-------------------------|-------------------------|-------------------------|

H|--------------------------|-------------------------|-------------------------|-------------------------|

G|--------------------------|-------------------------|-------------------------|-------------------------|

D|--2-----------2-----2-h4--|-2-----------2-----2-h4--|-2-----------2-----2-h4--|-2-----------2-----------|

A|-----2-----2-----2--------|----3-----3-----3--------|----2-----2-----2--------|----3-----3--------------|

E|--------0-----------------|-------0-----------------|-------0-----------------|-------0-----------------|

VoiceE|--------------------------------------------------------------------------------------------------------|

H|--------------------------------------------------------------------------------------------------------|

G|------------------------------------------------------------------------2----4----2---------------------|

D|--2---2-2---0---2---2-2--0--2-----0-----2----4-------5--5---5-5-5----5----------------------------------|

A|--------------------------------------------------------------------------------------------------------|

E| Tol\'ko ey podvlastny i vostorg i ve - ter, v zhidkih nebesah zvuchit tvoy smeh. -----------|

| | | | |

Gtr.3E|--------------------------|-------------------------|-------------------------|-------------0-----------|

H|--0--------0--------0-----|-1--------1--------1-----|-0--------0--------0-----|-3--------3--3--^--------|

G|-----0--------0--------0--|----0--------0--------0--|----0--------0-----------|----2--------2--|--------|

D|--------2--------2--------|-------2--------2--------|-------0--------0-----0--|-------0--------|--------|

A|--------------------------|-------------------------|-------------------------|-------------------------|

E|--------------------------|-------------------------|-------------------------|-------------------------|

| | | | |

Gtr.4E|--------------------------|-------------------------|-------------------------|-------------------------|

H|--------------------------|-------------------------|-------------------------|-------------------------|

G|--------------------------|-------------------------|-------------------------|-------------------------|

D|--2-----------2-----2-h4--|-2-----------2-----2-h4--|-0-----------0-----0-----|-0-----------0-----------|

A|-----2-----2-----2--------|----3-----3-----3--------|----2-----2--------------|----0-----0--------------|

E|--------0-----------------|-------0-----------------|-------3--------3--------|-------2-----------------|

(1:09 - 1:22)

BRIDGE:

VoiceE|--------------------------------------------------------------------------------------------------------|

H|--------------------------------------------------------------------------------------------------------|

G|--5-----------5-------------4-----------2-------------4-------------------------------------------------|

D|--------------------------------------------------------------------------------------------------------|

A|--------------------------------------------------------------------------------------------------------|

E|- An - gel\'s - ka - ya pyl\' --------------------|

| | | | |

Gtr.1E|--------------------------|-------------------------|-------------------------|-------------------------|

H|--------------------------|-------------------------|-------------------------|-------------------------|

G|--------------------------|-------------------------|-------------------------|-------------------------|

D|--2-----------5-----------|-4-----------7-----------|-9--------7--9--10--9--7--|-9--7--------------------|

A|--3-----------------------|-5-----------------------|----7h9h10-----------------|------10--9--10--9--7--5--|

E|--------------------------|-------------------------|-------------------------|-------------------------|

| | | | |

Gtr.2E|--------------------------|-------------------------|-------------------------|-------------------------|

H|--------------------------|-------------------------|-------------------------|-------------------------|

G|--------------------------|-------------------------|----------------2--------|-------------------------|

D|--------------------------|-------------------------|-2-----2--4--5-----5--4--|-5--4--2-----2-----------|

A|--3-----------------------|-5-----------------------|-2-----------------------|----------5-----5--3--2--|

E|--3-----------------------|-5-----------------------|-0-----------------------|-------------------------|

VoiceE|--------------------------------------------------------------------------------------------------------|

H|--------------------------------------------------------------------------------------------------------|

G|--5-----------5-------------4-----------2-------------4-------------------------------------------------|

D|--------------------------------------------------------------------------------------------------------|

A|--------------------------------------------------------------------------------------------------------|

E|- E - to son i by - yyl\'! ----|

| | | | |

Gtr.1E|--------------------------|-------------------------|-------------------------|-------------------------|

+ H|--------------------------|-------------------------|-------------------------|-------------------------|

Gtr.2G|--------------------------|-------------------------|----------------------2--|(2)----2-----------------|

D|--2-----------5-----------|-4-----------7-----------|-4-----------4--------4--|(4)----4-----5-----4-----|

A|--3-----------------------|-5-----------------------|-2--2--2--2--2--2--2-----|-------------5-----4-----|

E|--3-----------------------|-5-----------------------|----.--.--.-----.--.-----|-------------3-----2-----|

(1:22 - 1:49)

CHORUS:

VoiceE|-------------------------------------------------------------------------------------------------------|

H|-------------------------------------------------------------------------------------------------------|

G|-------------------------------------------------------------------------------------------------------|

D|------5------4-----2-------------5-----5-------------------5-----4-----5-------------------------------|

A|-------------------------------------------------------------------------------5-----------------------|

E|- Be - zu - metz, beg - letz, do - ro - gi neeeeeeeeeeeeeeeeet. --|

| | | | |

Gtr.1E|-------------------------|-------------------------|-------------------------|-------------------------|

H|-------------------------|-------------------------|-------------------------|-------------------------|

G|-------------------------|-5-----------------------|-------------------------|-------------------------|

D|-2-----------------------|-5-----------------------|-5-----------------------|-0--0-0h4--5--7--5--4--0--|

A|-2-----------------------|-3-----------------------|-5-----------------------|-------------------------|

E|-0-----------------------|-------------------------|-3-----------------------|-------------------------|

| | | | |

Gtr.2E|-------------------------|-------------------------|-------------------------|-------------------------|

H|----------7--8--7--------|----------7--8--7--------|----------10-12-10-------|-------------10----------|

G|-9-----9-----------9-----|-9-----9-----------9-----|-12----12----------12-11-|-11----11-12----12-11----|

D|----9-----------------9--|----9-----------------9--|----12-------------------|----12----------------12-|

A|----.--------------------|----.--------------------|----.--------------------|-------------------------|

E|-------------------------|-------------------------|-------------------------|-------------------------|

VoiceE|-------------------------------------------------------------------------------------------------------|


H|-------------------------------------------------------------------------------------------------------|

G|-------------------------------------------------------------------------------------------------------|

D|-------5-----4-----2-------------5-----4-----5-------7-------------------------------------------------|

A|-------------------------------------------------------------------------------------------------------|

E|-- Ty vi - dish\' ne - ver - nyy sve - e - e - e - ---|

| | | | |

Gtr.1E|-------------------------|-------------------------|-------------------------|-------------------------|

H|-------------------------|-------------------------|-------------------------|-------------------------|

G|-------------------------|-5-----------------------|-7--7--R-----7--7--R-----|-7--7--7--7--7--7--7--7--|

D|-2-----------------------|-5-----------------------|-7--7--E-----7--7--E-----|-7--7--7--7--7--7--7--7--|

A|-2-----------------------|-3-----------------------|-5--5--S--5--5--5--S--5--|-5--5--5--5--5--5--5--5--|

E|-0-----------------------|-------------------------|-------T--.--------T--.--|-.--.--.--.--.--.--.--.--|

| | | | |

Gtr.2E|-------------------------|-------------------------|-------------------------|-------------------------|

H|----------7--8--7--------|----------7--8--7--------|-------------10----------|-------------10\\---------|

G|-9-----9-----------9-----|-9-----9-----------9-----|-11----11-12----12-11----|-11----11-12---sl--------|

D|----9-----------------9--|----9-----------------9--|----12----------------12-|----12-------------------|

A|----.--------------------|----.--------------------|----.--------------------|----.--------------------|

E|-------------------------|-------------------------|-------------------------|-------------------------|

VoiceE|-------------------------------------------------------------------------------------------------------|

H|-------------------------------------------------------------------------------------------------------|

G|-4-------5---4-----2-------------5-----5-------------------5-----4-----5-------------------------------|

D|-------------------------------------------------------------------------------5-----------------------|

A|-------------------------------------------------------------------------------------------------------|

E| et. Tvoy an - gel za - zheg mi - razh og - nyaaaaaaaaaaaaaaaaaaa ---|

| | | | |

Gtr.1E|-------------------------|-------------------------|-------------------------|-------------------------|

H|-------------------------|-------------------------|-------------------------|-------------------------|

G|-2-----------------------|-------------------------|-5-----------------------|-------------------------|

D|-2-----------------------|-3-----------------------|-5-----------------------|-------------------------|

A|-0-----------------------|-3-----------------------|-3-----------------------|-------2--3--5--3--2-----|

E|-------------------------|-1-----------------------|-------------------------|-3--3-----------------3--|

| | | | |

Gtr.2E|-------------------------|-------------------------|-------------------------|-------------------------|

H|-------------------------|-------------------------|-------------5-----------|-------------------------|

G|----------4--5--4--------|----------4--5--4--------|-5-----5--7-----7--5--4--|-4-----4--5--7--5--4-----|

D|-7-----7-----------7-----|-7-----7-----------7--5--|----5--------------------|----5-----------------5--|

A|----7-----------------7--|----7--------------------|----.--------------------|-------------------------|

E|----.--------------------|----.--------------------|-------------------------|-------------------------|

VoiceE|-------------------------------------------------------------------------------------------------------|

H|-------------------------------------------------------------------------------------------------------|

G|-------5-----4-----2-------------5-----4-----5-------7-------------------------------------------------|

D|-------------------------------------------------------------------------------------------------------|

A|-------------------------------------------------------------------------------------------------------|

E|-- on ho - chet u - bit\' te - byaaaaaaaaaaaaaaaaaaaaaaaaaaaaaaaaaaaa ! ----------|

| | | | |

Gtr.1E|-------------------------|-------------------------|-------------------------|-------------------------|

H|-------------------------|-------------------------|-------------------------|-------------------------|

G|-2-----------------------|-------------------------|-------R-----------R-----|-------------------------|

D|-2-----------------------|-3-----------------------|-5--5--E-----5--5--E-----|-5--5--5--5--5--5--5--5--|

A|-0-----------------------|-3-----------------------|-5--5--S-----5--5--S-----|-5--5--5--5--5--5--5--5--|

E|-------------------------|-1-----------------------|-3--3--T--3--3--3--T--3--|-3--3--3--3--3--3--3--3--|

| | | . . | . . . . . . . . |

Gtr.2E|-------------------------|-------------------------|-------------------------|-------------------------|

H|-------------------------|-------------------------|-------------------------|-------------------------|

G|----------4--5--4--------|----------4--5--4--------|-4-----4--5--7--5--4-----|-4-----4--5--7-\\---------|

D|-7-----7-----------7-----|-7-----7-----------7--5--|----5-----------------5--|----5-----------sl-------|

A|----7-----------------7--|----7--------------------|-------------------------|-------------------------|

E|----.--------------------|----.--------------------|-------------------------|-------------------------|

(1:49 - 2:02) Play RIFF 2

(2:03 - 2:31)

VERSE 2: (guitars the same as in verse 1. Here is the bass:)

Na krayu obryva pesnya ne - zem - na - ya, muzy -ka bogov i go -lo -sa bo - gin\'.

Bass G|--------------------------|-------------------------|-------------------------|-------------------------|

D|--------------------------|-------------------------|-------------------------|-------5-----4-----------|

A|--------------------------|-3-----------------------|----------------------2--|-3--------------7--5-----|

E|--0--------------------3--|-------------------------|-0-----------------------|-------------------------|

Ty parish\' nad mirom, no torgo - vetz ra -em vynet dushu iz tebya za gero - in.

Bass G|--------------------------|-------------------------|-------------------------|-------------------------|

D|--------------------------|-------------------------|-------------------------|-------4--5--7-----7-----|

A|--------------------------|-3-----------------------|-------------------2--3--|-5-----------------------|

E|--0--------------------3--|-------------------------|-3-----------------------|-------------------------|

(2:31 - 2:44) BRIDGE

(2:44 - 3:10) CHORUS

(3:11 - 3:37) Play RIFF 1

SOLO:

(3:37 - 4:03)

Part A: (play this *2 times) (Lead: start with tremolo effects ad/lib)

Gtr.1E||---------------------------------|---------------------------------|

H||---------------------------------|---------------------------------|

G||-----------------R---------------|-----------------R---------------|

D||-----------------E---------------|-----------------E---------------|

A||---------7---9---S---------------|---------7---10--S---------------|

E||-0---7-----------T---------------|-0---7-----------T---------------|

. . . . . .

Gtr.1E|----------------------------------|---------------------------------|

H|----------------------------------|---------------------------------|

G|------------------R---------------|---------------------------------|

D|--------------7---E---------------|---------------------------------|

A|----------7-------S---------------|---------7-----------------------|

E|--0---7-----------T---------------|-0---7-------10------------------|

. . . . . .

Gtr.1E|----------------------------------|---------------------------------|

H|----------------------------------|---------------------------------|

G|------------------R---------------|-----------------R---------------|

D|----------7---9---E---------------|---------7---10--E---------------|

A|--0---7---.-------S---------------|-0---7---.-------S---------------|

E|--.---.-----------T---------------|-.---.-----------T---------------|

Gtr.1E|----------------------------------|---------------------------------||

H|----------------------------------|---------------------------------||

G|--------------7---R---------------|---------------------------------||

D|----------7-------E---------------|---------7------- w/tremolo bar -||

A|--0---7---.-------S---------------|-0---7---.---9--\\\\\\\\\\------------||

E|--.---.-----------T---------------|-.---.---------------------------||

(4:03 - 4:29)

Part B (Terentiev\'s lead):

Lead E|-12~~~~~~~~~~~~~~~~~~~~~~~~~~~~~~~~~~~~~~|-(12)~~~~~~~~~~~~~~~~~~~~~~~~~~----------|

H|-----------------------------------------|-----------------------------------------|

G|-----------------------------------------|-----------------------------------------|

D|-----------------------------------------|-----------------------------------------|

A|-----------------------------------------|-----------------------------------------|

E|-----------------------------------------|-----------------------------------------|

| | |

Gtr.1E|-----------------------------------------|-----------------------------------------|

H|-----------------------------------------|-----------------------------------------|

G|-----------------------------------------|-----------------------------------------|

D|-2--------------2--------------2---------|-5--------------2--------------2---------|

A|-2--------------2--------------2---------|-5--------------2--------------2---------|

E|------0----0---------0----0---------0----|------0----0---------0----0---------0----|

. . . . . . . . . .

Lead E|-15p12-14p11-15p11---T------T-----------------|-----------------------------------------|

H|------------------12-15p12p11-15p11p10-11p10---11-----|-----------------------------------------|

G|---------------------------------------------12---12bend14~~~~~~~~~~~~~~~~~~~~-----------------|

D|-----------------------------------------|-----------------------------------------|

A|-----------------------------------------|-----------------------------------------|

E|-----------------------------------------|-----------------------------------------|

| | |

Gtr.1E|-----------------------------------------|-----------------------------------------|

H|-----------------------------------------|-----------------------------------------|

G|-----------------------------------------|-----------------------------------------|

D|-7--------------2--------------2---------|-5---/7----7----7---------5----2---------|

A|-7--------------2--------------2---------|-3---/5----5----5---------3----0---------|

E|------0----0---------0----0---------0----|-----------------------------------------|

. . . . .

Lead E|--------------15h17p15--------------------------------------|-----------------------------------------|

H|------15h16h17--------17p16p15---------15b16----------------|-----------------------------------------|

G|-14h17------------------------17-14h17-------17b19release17-|-14------------12b14rel12----------------|

D|------------------------------------------------------|---17-14------------------14~~~~/\\/\\/\\---|

A|------------------------------------------------------|--------16-12----------------- pedal ----|

E|-----------------------------------------|-----------------------------------------|

| | |

Gtr.1E|-----------------------------------------|-----------------------------------------|

H|-----------------------------------------|-----------------------------------------|

G|-----------------------------------------|-----------------------------------------|

D|-0--h-2---------2--------------2---------|-5--------------2--------------2---------|

A|-0--h-2---------2--------------2---------|-5--------------2--------------2---------|

E|-----------0---------0----0---------0----|------0----0---------0----0---------0----|

. . . . . . . . .

Lead E|-----------------------------------------|-----------------------------------------|

H|--------7h10p8p7-------------------------|-----------------------------------------|

G|---7h8h9--------9p8p7--7h9p7-------------|-----------------------------------------|

D|-10------------------10-----10-7-------7h9p7---------------------------------------|

A|--------------------------------10p9h10--|--10p9p7---------------------------------|

E|-----------------------------------------|--------10p8----\\------------------------|

| | |

Gtr.1E|-----------------------------------------|-----------------------------------------|

H|-----------------------------------------|-----------------------------------------|

G|-----------------------------------------|-----------------------------------------|

D|-7--------------2--------------2---------|-5---/7----7----7---------5----2---------|

A|-7--------------2--------------2---------|-3---/5----5----5---------3----0---------|

E|------0----0---------0----0---------0----|-----------------------------------------|

. . . . .

Lead E|-17b19------17b19~~~~~~~~~~~~~~~~~~~~~~~~|-(17^^)~~~~~~~~~~~~~~~~~~~~~-------------|

H|-----------------------------------------|-----------------------------------------|

G|-----------------------------------------|-----------------------------------------|

D|-----------------------------------------|-----------------------------------------|

A|-----------------------------------------|-----------------------------------------|

E|-----------------------------------------|-----------------------------------------|

| | |

Gtr.1E|-----------------------------------------|-----------------------------------------|

H|-----------------------------------------|-----------------------------------------|

G|-----------------------------------------|-----------------------------------------|

D|-0--h-2---------2--------------2---------|-5--------------2--------------2---------|

A|-0--h-2---------2--------------2---------|-5--------------2--------------2---------|

E|-----------0---------0----0---------0----|------0----0---------0----0---------0----|

. . . . . . . . .

Lead E|-15b17~~~~~~~~~~~~~~~~~~~~~~~~~~~~-------|-15--12----------------------------------|

H|-----------------------------------------|--------15-12----------------------------|

G|-----------------------------------------|---------------15-14-12------------------|

D|-----------------------------------------|-------------------------14~~~~/\\/\\\\\\\\---|

A|-----------------------------------------|-------------------------------------sl--|

E|-----------------------------------------|------------------------------------down-|

| | |

Gtr.1E|-----------------------------------------|-----------------------------------------|

H|-----------------------------------------|-----------------------------------------|

G|-----------------------------------------|-----------------------------------------|

D|-7--------------2--------------2---------|-5---/7----7----7---------5----2---------|

A|-7--------------2--------------2---------|-3---/5----5----5---------3----0---------|

E|------0----0---------0----0---------0----|-----------------------------------------|

. . . . .

T T T T T T

Lead E|-------------------------------------------------|---------------------10/11-15p12p11p10----------------------------------|

H|-------------------------------------------------|-15p10h13-15p10h13--------------------15p13p10-15p13p10\\8---------------|

G|-----------------------5h7p5---7-----T----T----10h12----------------------------------------------------------9p7-12p9p7-|


D|-----------------3h5/7-----------7/10-17p10h12-17p10h12---|---------------------------------------------------------------------------|

A|-------5-0h3h4h5---------------------------------|---------------------------------------------------------------------------|

E|-------------------------------------------------|---------------------------------------------------------------------------|

| | |

Gtr.1E|-------------------------------------------------|-------------------------------------------------|

H|-------------------------------------------------|-------------------------------------------------|

G|-0--h--2-----------2-----------------2-----------|-5-----------------2-----------------2-----------|

D|-0--h--2-----------2-----------------2-----------|-5-----------------2-----------------2-----------|

A|-------------0-----------0-----0-----------0-----|-------0-----0-----------0-----0-----------0-----|

E|-------------.-----------.-----.-----------.-----|-------.-----.-----------.-----.-----------.-----|

Lead E|-----------------------------------------|-----------------------------------------|

H|-----------------------------------------|-----------------------------------------|

G|--------------------------7bend8rel 7p5--|-7----5----------------------------------|

D|-10p7-10p7-------------------------------|-----------4----4~~~~~~~~~~--------------|

A|-----------6-----------------------------|-----------------------------------------|

E|-----------------------------------------|-----------------------------------------|

| | |

Gtr.1E|-----------------------------------------|-----------------------------------------|

H|-----------------------------------------|-----------------------------------------|

G|-7--------------2--------------2---------|-----------------------------------------|

D|-7--------------2--------------2---------|-4----4----4----4---------2--------------|

A|------0----0---------0----0---------0----|-5----5----5----5---------0--------------|

E|------.----.---------.----.---------.----|-----------------------------------------|

(4:30 - 4:47)

Part C (Holstinin\'s lead):

Lead E|-------------------14b15....rel14---12---|-----------------------------------------|

H|------------------x----------------------|-----------------------------------------|

G|-----------------x-----------------------|-13b14.......rel13---12------------------|

D|-----------------------------------------|-----------------------------------------|

A|-------------- rake ---------------------|-----------------------------------------|

E|-----------------------------------------|-----------------------------------------|

| | |

Gtr.1E|-----------------------------------------|-----------------------------------------|

H|-----------------------------------------|-----------------------------------------|

G|-----------------------------------------|-----------------------------------------|

D|-2-------------------5-------------------|-4-------------------7-------------------|

A|-3---------------------------------------|-5---------------------------------------|

E|-3---------------------------------------|-5---------------------------------------|

Lead E|---------------------15------------------|-14------------------12------------------|

H|------12---13---12--------12---13---12---|------12---13---12--------12---13---12---|

G|-----------------------------------------|-----------------------------------------|

D|-----------------------------------------|-----------------------------------------|

A|-----------------------------------------|-----------------------------------------|

E|-----------------------------------------|-----------------------------------------|

| | |

Gtr.1E|-----------------------------------------|-----------------------------------------|

H|-----------------------------------------|-----------------------------------------|

G|-----------------------------------------|-----------------------------------------|

D|-9--------------7----9----10---9----7----|-9----7----------------------------------|

A|------7----10----------------------------|----------10----9----10---9----7----5----|

E|-----------------------------------------|-----------------------------------------|

Lead E|-----------------------------------------|-----------------------------------------|

H|-----------------------------------------|-----------------------------------------|

G|-14~~~~~~~~~~~~~~--------------12---11---|-----------------------------------------|

D|-----------------------------------------|-12bf14release12-----12~~~~~~~~----------|

A|-----------------------------------------|-----------------------------------------|

E|-----------------------------------------|-----------------------------------------|

| | |

Gtr.1E|-----------------------------------------|-----------------------------------------|

H|-----------------------------------------|-----------------------------------------|

G|-----------------------------------------|-----------------------------------------|

D|-2-------------------5-------------------|-4-------------------7-------------------|

A|-3---------------------------------------|-5---------------------------------------|

E|-3---------------------------------------|-5---------------------------------------|

Lead E|------------------------------------------|------------12----12--15--12--15--17--15--17-|

H|---------------------------------12----12-|-15--12--15----15----------------------------|

G|------------12----12--14--12--14----14----|---------------------------------------------|

D|-14--12--14----14-------------------------|---------------------------------------------|

A|------------------------------------------|---------------------------------------------|

E|------------------------------------------|---------------------------------------------|

| | |

Gtr.1E|------------------------------------------|---------------------------------------------|

H|------------------------------------------|---------------------------------------------|

G|------------------------------------------|---------------------------------------------|

D|-4--------------------4-------------------|-4--------------------4----------------------|

A|-2--------------------2-------------------|-2--------------------2----------------------|

E|------------------------------------------|---------------------------------------------|

Lead E|--17bend19-----------17bend19------------|-17bend19--------------------------------|

H|-----------------------------------------|-----------------------------------------|

G|-----------------------------------------|-----------------------------------------|

D|-----------------------------------------|-----------------------------------------|

A|-----------------------------------------|-----------------------------------------|

E|-----------------------------------------|-----------------------------------------|

| | |

Gtr.1E|-----------------------------------------|-----------------------------------------|

H|-----------------------------------------|-----------------------------------------|

G|-----R-----------------------------------|-----------------------------------------|

D|--4--E-----------------------------------|---------------------5---------4---------|

A|--2--S-----------------------------------|---------------------5---------4---------|

E|-----T-----------------------------------|---------------------3---------2---------|

(4:47 - 5:13) CHORUS

(5:14 - 5:40)

OUT-CHORUS: (together with Gtr.2 from previous chorus)

Be - zu - metz, beg - letz, do - ro - gi neeeeeeeeeeeeeeeeet.

Gtr.1E|-------------------------|-------------------------|-------------------------|-------------------------|

H|-------------------------|-------------------------|-------------------------|-------------------------|

G|-------------------------|-------------5-----------|-------------------------|-------------------------|

D|-------------2-----------|-------------5-----------|-------------5-----------|-0--0-0h4--5--7--5--4--0--|

A|-------------2-----------|-3--3--3--3--3-----------|-------------5-----------|-------------------------|

E|-0--0--0--0--0-----------|-.--.--.--.--------------|-3--3--3--3--3-----------|-------------------------|

| . . . . | | . . . . | |

Lead E|-------------------------|-------------------------|-------------------------|-17b19-------17----------|

H|-------------------------|-------------------------|-------------------------|-------------------------|

G|-------------------------|-------------------------|-------------------------|-------------------------|

D|-------------------------|-------------------------|-------------------------|-------------------------|

A|-------------------------|-------------------------|-------------------------|-------------------------|

E|-------------------------|-------------------------|-------------------------|-------------------------|

Ty vi - dish\' ne - ver - nyy sve - e - e - e -

Gtr.1E|-------------------------|-------------------------|-------------------------|-------------------------|

H|-------------------------|-------------------------|-------------------------|-------------------------|

G|-------------------------|-------------5-----------|-7--7--R-----7--7--R-----|-7--7--7--7--7--7--7--7--|

D|-------------2-----------|-------------5-----------|-7--7--E-----7--7--E-----|-7--7--7--7--7--7--7--7--|

A|-------------2-----------|-3--3--3--3--3-----------|-5--5--S--5--5--5--S--5--|-5--5--5--5--5--5--5--5--|

E|-0--0--0--0--0-----------|-.--.--.--.--------------|-------T-----------T-----|-------------------------|

| . . . . | | | |

Lead E|-15p14-------------------|-------------------------|-------------------------|-------------------------|

H|------17~~~~~~~~~~~~~~~~~~~~~~~~~~~~~~~~~~~~~~-\\---|-------------------------|-------------------------|

G|-------------------------|-------------------------|----------12-bend to 14 --------- release ---------|

D|-------------------------|-------------------------|-------14----------------|-------------------------|

A|-------------------------|-------------------------|-------------------------|-------------------------|

E|-------------------------|-------------------------|-------------------------|-------------------------|

et. Tvoy an - gel za - zheg mi - razh og - nyaaaaaaaaaaaaaaaaaaa

Gtr.1E|-------------------------|-------------------------|-------------------------|-------------------------|

H|-------------------------|-------------------------|-------------------------|-------------------------|

G|-------------2-----------|-------------------------|-------------5-----------|-------------------------|

D|-------------2-----------|-------------3-----------|-------------5-----------|-------------------------|

A|-0--0--0--0--0-----------|-------------3-----------|-3--3--3--3--3-----------|-------2--3--5--3--2-----|

E|-.--.--.--.--------------|-1--1--1--1--1-----------|-.--.--.--.--------------|-3--3-----------------3--|

| | . . . . | | |

Lead E|---------------------15p14-17~~~~~~~~~~~~~~--17-19-|-20p19-20----------------|-------------------------|

H|-------------------------|-------------------------|-------------------------|-15~~~~~~~~~~~~~~~~~-----|

G|-------------------------|-------------------------|-------------------------|-------------------------|

D|-14----------------------|-------------------------|-------------------------|-------------------------|

A|-------------------------|-------------------------|-------------------------|-------------------------|

E|-------------------------|-------------------------|-------------------------|-------------------------|

on ho - chet u - bit\' te - byaaaaaaaaaaaaaaaaaaaaaaaaaaaaaaaaaaaa !

Gtr.1E|-------------------------|-------------------------|-------------------------|-------------------------|

H|-------------------------|-------------------------|-------------------------|-------------------------|

G|-------------2-----------|-------------------------|-------R-----------R-----|-------------------------|

D|-------------2-----------|-------------3-----------|-5--5--E-----5--5--E-----|-5--5--5--5--5--5--5--5--|

A|-0--0--0--0--0-----------|-------------3-----------|-5--5--S-----5--5--S-----|-5--5--5--5--5--5--5--5--|

E|-.--.--.--.--------------|-1--1--1--1--1-----------|-3--3--T--3--3--3--T--3--|-3--3--3--3--3--3--3--3--|

| | . . . . | | |

Lead E|-------------------------|-------------------------|-17b19--------17---------|-15---------14-----------|

H|-20b22-------20b22-------|-------20----------------|-------------------------|-------------------------|

G|-------------------------|-19b21......release19p17-|-------------------------|-------------------------|

D|-------------------------|-------------------------|-------------------------|-------------------------|

A|-------------------------|-------------------------|-------------------------|-------------------------|

E|-------------------------|-------------------------|-------------------------|-------------------------|

(5:40 - 5:56)

OUTRO:

U - bi -it\' te - bya - a..

Gtr.1E|-------------------------|-------------------------|-------------------------|- ritenuto --------------|-------

Gtr.2H|-------------------------|-------------------------|-------------------------|-------------------------|-------

G|-------------------------|-------------------------|-------------------------|-------------------------|-------

D|-2-----------------------|-(2)---------------------|-(2)-- fade out ---------|-------------------------|-------

A|-2-----------------------|-(2)---------------------|-(2)---------------------|-------------------------|-------

E|-0-----------------------|-(0)---------------------|-(0)---------------------|-------------------------|-------

| | | | |

Lead E|-14----------------------|-------------------------|-------------------------|-------------------------|-------

H|-------15----------------|-(15)--------------------|----- fade out ----------|-------------------------|-------

G|-------------------------|-------------------------|-------------------------|-------------------------|-------

D|-------------------------|-------------------------|-------------------------|-------------------------|-------

A|-------------------------|-------------------------|-------------------------|-------------------------|-------

E|-------------------------|-------------------------|-------------------------|-------------------------|-------

| | | | |

Gtr.3E|-------------------------|-------------------------|-------------------------|-------------------------|-------

Gtr.4H|-0--------0--------0-----|-1--------1--------1-----|-0--------0--------0-----|-1--------1--------------|-------

G|----0--------0--------0--|----0--------0--------0--|----0--------0--------0--|----0--------0-----------|-------

D|-2-----2-----2--2--2-h4--|-2-----2-----2--2--2-h4--|-2-----2-----2--2--2-h4--|-2-----2-----2-----------|-------

A|----2-----2-----2--------|----3-----3-----3--------|----2-----2-----2--------|----3-----3--------------|-------

E|-------0-----------------|-------0-----------------|-------0-----------------|-------0-----------------|-------

| | | | |

Bass G|-------------------------|-------------------------|-------------------------|------/12----11-9--------|-------

D|-------------------------|-------------------------|-------------------------|------------------12-----|-------

A|-------------------------|-------------------------|-------------------------|-------------------------|-7-----

E|-0-----------------------|-------------------------|-------------------------|-------------------------|-------

--------------------------------------------------------------------------------