.

( )

A                                                   

o pae a-- a pa O...
S.Mulder

HIMERA
)
INTRO:
(0:01 - 0:27)
RIFF 1:
Gtr.1Eb|----------------------------------|---------------------------------|
Gtr.2Hb|----------5---7-------5---8-------|-(8)-----4---5-------4---7-------|
Gb|--------------------------4-------|-(4)-----------------------------|
Db|----------5---7-------5-----------|---------4---5-------4---7-------|
Ab|----------------------------------|---------------------------------|
Eb|----------------------------------|---------------------------------|
| | |
Bass Gb|----------------------------------|---------------------------------|
Db|----------------------------------|---------------------------------|
Ab|--3-------------------------------|-2-------------------------------|
Eb|----------------------------------|---------------------------------|

Gtr.1Eb|----------------------------------|---------------------------------|
Gtr.2Hb|--8~~~~~~~~-----------------------|---------------------------------|
Gb|--4~~~~~~~~---------------4---5---|-4~~~~~~~~~~-----------------4---|
Db|--------------------------4---5---|-4~~~~~~~~~~-------------7-------|
Ab|----------------------------------|-------------------------0---2---|
Eb|----------------------------------|---------------------------------|
| | |
Bass Gb|----------------------------------|---------------------------------|
Db|----------------------------------|---------------------------------|
Ab|----------------------------------|-2-----------------------0---2---|
Eb|--0-------------------------------|---------------------------------|

Gtr.1Eb|----------------------------------|---------------------------------|
Gtr.2Hb|----------5---7-------5---8-------|-(8)-----4---5-------4---7---4---|
Gb|--5-----------------------4-------|-(4)-----------------------------|
Db|----------5---7-------5-----------|---------4---5-------4---7---4---|
Ab|--3-------------------------------|---------------------------------|
Eb|----------------------------------|---------------------------------|
| | |
Bass Gb|----------------------------------|---------------------------------|
Db|----------------------------------|---------------------------------|
Ab|--3-------------------------------|-2-------------------------------|
Eb|----------------------------------|-------------------------2---3---|

Gtr.1Eb|----------------------------------|---------------------------------|
Gtr.2Hb|--5~~~~~~~~-----------------------|---------------------------------|
Gb|--------------------------4---5---|-4~~~~~~~~~~~----------------4---|
Db|--------------------------4---5---|-4~~~~~~~~~~~------------7-------|
Ab|--7~~~~~~~~-----------------------|-------------------------0---2---|
Eb|----------------------------------|---------------------------------|
| | |
Bass Gb|----------------------------------|---------------------------------|
Db|----------------------------------|---------------------------------|
Ab|----------------------------------|-2-----------------------0---2---|
Eb|--0-------------------------------|---------------------------------|

Gtr.1Eb|----------------------------------|---------------------------------|
Gtr.2Hb|----------5---7-------5---8-------|-(8)-----4---5-------4---7-------|
Gb|--5-----------------------4-------|-(4)-----------------------------|
Db|----------5---7-------5-----------|---------4---5-------4---7-------|
Ab|--3-------------------------------|---------------------------------|
Eb|----------------------------------|---------------------------------|
| | |
Bass Gb|----------------------------------|---------------------------------|
Db|----------------------------------|---------------------------------|
Ab|--3---3---3---3---3---3---3---3---|-2---2---2---2---2---2-----------|
Eb|----------------------------------|-------------------------2---3---|

Gtr.1Eb|----------------------------------|---------------------------------|
Gtr.2Hb|--8~~~~~~~~-----------------------|---------------------------------|
Gb|--4~~~~~~~~---------------4---5---|-4~~~~~~~~~~-----------------4---|
Db|--------------------------4---5---|-4~~~~~~~~~~-------------7-------|
Ab|----------------------------------|-------------------------0---2---|
Eb|----------------------------------|---------------------------------|
| | |
Bass Gb|----------------------------------|---------------------------------|
Db|----------------------------------|---------------------------------|
Ab|----------------------------------|-2---2---2---2---2---2---0---2---|
Eb|--0---0---0---0---0---0---0---0---|---------------------------------|

Gtr.1Eb|----------------------------------|---------------------------------|
Gtr.2Hb|----------5---7-------5---8-------|-(8)-----4---5-------4---7---4---|
Gb|--5-----------------------4-------|-(4)-----------------------------|
Db|----------5---7-------5-----------|---------4---5-------4---7---4---|
Ab|--3-------------------------------|---------------------------------|
Eb|----------------------------------|---------------------------------|
| | |
Bass Gb|----------------------------------|---------------------------------|
Db|----------------------------------|---------------------------------|
Ab|--3---3---3---3---3---3---3---3---|-2---2---2---2---2---2-----------|
Eb|----------------------------------|-------------------------2---3---|
(0:28 - 0:35)
TRANSITION TO VERSE:
Gtr.1Eb|----------------------------------|---------------------------------|
Gtr.2Hb|--5~~~~~~~~-----------------------|----------------~~~~~~~------|
Gb|-----------------~~~~~~~------|-~~~~~~~~~--------------------|
Db|----------------------------------|---------------------------------|
Ab|--7~~~~~~~~-----------------------|---------------------------------|
Eb|----------------------------------|---------------------------------|
| | |
Bass Gb|----------------------------------|---------------------------------|
Db|----------------------------------|---------------------------------|
Ab|----------------------------------|---------------------------------|
Eb|--0---0---0---0---0---0---0---0---|-0---0---0---0---0---0---0---0---|

Gtr.1Eb|----------------------------------|---------------------------------|
Gtr.2Hb|-----------------~~~~~~~--\\---|---------------------------------|
Gb|-~~~~~~~~----------------------|---------------------------------|
Db|----------------------------------|---------------------------------|
Ab|----------------------------------|---------------------------------|
Eb|----------------------------------|---------------------------------|
| | |
Bass Gb|----------------------------------|---------------------------------|
Db|----------------------------------|---------------------------------|
Ab|--7---7-7---7-7---7---7-7---7-7---|-7---7-7---7-7---7---7-7---7-7---|
Eb|----------------------------------|---------------------------------|
(0:35 - 0:51)
VERSE 1:
VoiceEb|--------------------------------------------------------------------|
Hb|--------------------------------------------------------------------|
Gb|--------------------------------------------------------------------|
Db|--2-----2--2--5--2-----------------2---2--2-----4---5---------------|
Ab|---------------------2----------------------------------------------|
Eb| Ty - ditya okra - in, i gorya - chih zon, ----------|
| | |
Gtr.1Eb|----------------------------------|---------------------------------|
Gtr.2Hb|----------------------------------|---------------------------------|
Gb|----------------------------------|-5---------------5---------------|
Db|--2---------------2---------------|-5---------------5---------------|
Ab|--2---------------2---------------|-3---------------3---------------|
Eb|--0---0-0---0-0---0---0-0---0-0---|-----0-0---0-0-------0-0---0-0---|
> . . . . > . . . . > . . . . > . . . .

VoiceEb|--------------------------------------------------------------------|
Hb|--------------------------------------------------------------------|
Gb|------------------2------2-----2----4-------------------------------|
Db|--5--------------------------------------2--------------------------|
Ab|--------------------------------------------------------------------|
Eb| syn myort - voy pri - ro - dy. ---------------------|
| | |
Gtr.1Eb|----------------------------------|---------------------------------|
Gtr.2Hb|----------------------------------|---------------------------------|
Gb|----------------------------------|---------------R-----------------|
Db|--5---------------4---------------|-2-------------E---3-3---3-3-3-2-|
Ab|--5---------------4---------------|-2-------------S---3-3---3-3-3-2-|
Eb|--3---0-0---0-0---2---0-0---0-0---|-0---0-0---0-0-T---1-1---1-1-1-0-|

Ty igrok bez pra - vil, sam sebe za - kon.
Gtr.1Eb|----------------------------------|---------------------------------|
Gtr.2Hb|----------------------------------|---------------------------------|
Gb|----------------------------------|-5---------------5---------------|
Db|-(2)--------------2---------------|-5---------------5---------------|
Ab|-(2)--------------2---------------|-3---------------3---------------|
Eb|-(0)--0-0---0-0---0---0-0---0-0---|-----0-0---0-0-------0-0---0-0---|

Ty vo - in svo - bo - dy.
Gtr.1Eb|----------------------------------|---------------------------------|
Gtr.2Hb|----------------------------------|---------------------------------|
Gb|----------------------------------|---------------------------------|
Db|--5---------------4---------------|-2---------------2---------------|
Ab|--5---------------4---------------|-2---------------2---------------|
Eb|--3---0-0---0-0---2---0-0---0-0---|-0---0-0---0-0---0-------0h2h3h5-|
(0:51 - 1:11)
BRIDGE:
VoiceEb|--------------------------------------------------------------------|
Hb|--------------------------------------------------------------------|
Gb|------------------2-----2-----2-------------------------------------|
Db|--4-----4------4-------------------4----4-4-------------------------|
Ab|--------------------------------------------------------------------|

Eb| Ty byl nikto, a te - per\' korol\'. -------------------|
| | |
Gtr.1Eb|----------------------------------|---------------------------------|
Gtr.2Hb|----------------------------------|-----------------8---7-7---7-7---|
Gb|------4-4---4-4-------7-7---7-7---|-----7-7---7-7---7---7-7---7-7---|
Db|------4-4---4-4-------7-7---7-7---|-----7-7---7-7---7---7-7---7-7---|
Ab|--0---2-2---2-2---2---5-5---5-5---|-----5-5---5-5---5---5-5---5-5---|
Eb|----------------------------------|-7-------------------------------|

VoiceEb|--------------------------------------------------------------------|
Hb|--------------------------------------------------------------------|
Gb|-------------------------------------------2------------------------|
Db|--2----2-2----2--2------2------4----5-----------5-------------------|
Ab|--------------------------------------------------------------------|
Eb| vy - bityh vitrin i sgo - rev - shih sten. --------------|
| | |
Gtr.1Eb|----------------------------------|---------------------------------|
Gtr.2Hb|----------------------------------|---------------------------------|
Gb|----------------------------------|-5-------------------------------|
Db|----------------------------------|-5-------------------------------|
Ab|--0---0-0---0-0---0---0-0---0-2---|-3---3-3---3-3---3-3-3-3-3h5p3p0-|
Eb|----------------------------------|---------------------------------|

Sko - ro na tay - me - re vspyhnet nol\'
Gtr.1Eb|----------------------------------|---------------------------------|
Gtr.2Hb|----------------------------------|-----------------8---7-7---7-7---|
Gb|------4-4---4-4-------7-7---7-7---|-----7-7---7-7---7---7-7---7-7---|
Db|------4-4---4-4-------7-7---7-7---|-----7-7---7-7---7---7-7---7-7---|
Ab|--0---2-2---2-2---2---5-5---5-5---|-----5-5---5-5---5---5-5---5-5---|
Eb|----------------------------------|-7-------------------------------|

VoiceEb|------------------------------------------------------------------------------------------------------|
Hb|------------------------------------------------------------------------------------------------------|
Gb|------------------------------------------------------------------------------------------------------|
Db|--2----2--2---2---2------2----4----5--------5--5---4-----------------5--------5--5---4----------------|
Ab|------------------------------------------------------------------------------------------------------|
Eb| i vzmetnetsya vverh se - ryy pe - pel i tlen, pe - pel i tlen -------------|
| | | |
Gtr.1Eb|----------------------------------|---------------------------------|---------------------------------|
Gtr.2Hb|----------------------------------|---------------------------------|---------------------------------|
Gb|----------------------------------|-5-------------------5-----------|-5-------------------5-----------|
Db|----------------------------------|-5-------------------5-----------|-5-------------------5-----------|
Ab|--0---0-0---0-0---0---0-0---0-2---|-3-------3-2---------3-------0---|-3-------3-2---------3-------0---|
Eb|----------------------------------|-------------3-2---2-----2-2-----|-------------3-2---2-----2-2-----|
> . . . . . > . . . > . . . . . > . . .

VoiceEb|--------------------------------------------------------------------|
Hb|--------------------------------------------------------------------|
Gb|-----------------------------------2--------------------------------|
Db|--5-------4-------5-------4-----------------------------------------|
Ab|--------------------------------------------------------------------|
Eb| Vzryv i voy si - ren... -------------------------|
| | |
Gtr.1Eb|----------------------------------|---------------------------------|
Gtr.2Hb|----------------------------------|---------------------------------|
Gb|--5-------------------------------|---------------------------------|
Db|--5-------------------------------|---------------------------------|
Ab|--3-------------------------------|-3---------------3-------3p2-----|
Eb|----------2-------5-------2-------|-----2---5---2-------2-------3p2-|
(1:12 - 1:28)
CHORUS:
VoiceEb|--------------------------------------------------------------------|
Hb|--------------------------------------------------------------------|
Gb|--4----------------------------4----3-------------------------------|
Db|---------2----5------2----5-----------------------------------------|
Ab|--------------------------------------------------------------------|
Eb| Ty u - ho - dish\' ot po - gon\' ---------------------------|
| | |
Gtr.1Eb|----------------------------------|---------------------------------|
Gtr.2Hb|----------------------------------|---------------------------------|
Gb|----------------------------------|---------------------------------|
Db|----------------------------------|---------------------------------|
Ab|--2---------------------------2---|-1-------------------------------|
Eb|--0-----------------------3-------|-0-------------------------------|

Skvoz\' kordo - ny, skvoz\' ogon\'.
Gtr.1Eb|----------------------------------|---------------------------------|
Gtr.2Hb|----------------------------------|---------------------------------|
Gb|----------------------------------|---------------------------------|
Db|----------------------------------|---------------------------------|
Ab|--2---------------------------2---|-1-------------------------------|
Eb|--0-----------------------3-------|-0-------------------------------|

VoiceEb|--------------------------------------------------------------------|
Hb|--------------------------------------------------------------------|
Gb|------------------------------------2-------------------------------|
Db|--5-------2---2---------------2-------------5----5--------------4---|
Ab|--------------------------------------------------------------------|
Eb| Svet v gla -za, ry - chag v la - don\', no |
| | |
Gtr.1Eb|----------------------------------|---------------------------------|
Gtr.2Hb|------------------------------5---|---------------------------------|
Gb|----------------------2---4h5-----|---------------------------------|
Db|--5-------------------------------|-2-------------------------------|
Ab|--3-------------------------------|-2-------------------------------|
Eb|----------------------------------|-0-------------------------------|

VoiceEb|--------------------------------------------------------------------|
Hb|--------------------------------------------------------------------|
Gb|--------------------------------------------------------------------|
Db|--5-----------2---------------------5---2---------------------------|
Ab|------------------5------------2------------------------------------|
Eb| tzel\' tvo -ya hi - me -ra! -----------------------|
| | |
Gtr.1Eb|----------------------------------|---------------------------------|
Gtr.2Hb|----------------------------------|---------------------------------|
Gb|----------------------------------|---------------------------------|
Db|--2---------------4---------------|---------------------------------|
Ab|--0---------------2---------------|---------------------------------|
Eb|----------------------------------|-0-0-0-0-0-0-0-0-0-0-0-0-0-0-0-0-|
(1:28 - 1:44) VERSE 2
(1:44 - 2:04) BRIDGE
(2:04 - 2:20) CHORUS
(2:20 - 2:47) Repeat RIFF 1, though this time with different bass
SOLO:
(2:47 - 3:18)
PART A:
Lead Eb|-------------------------------------------------|-------------------------------------------------|
Hb|-10-10-10-10-10-10-10-10-10-10-10-10-10-10-10-10-|-------------------------------------12h13p12h13-|
Gb|-------------------------------------------------|-12b14---12b14---12b14~~~~~~~~----14-------------|
Db|-------------------------------------------------|-------------------------------------------------|
Ab|-------------------------------------------------|-------------------------------------------------|
Eb|-------------------------------------------------|-------------------------------------------------|
| | |
Rthm Eb|-------------------------------------------------|-------------------------------------------------|
Hb|-------------------------------------------------|-------------------------------------------------|
Gb|-------------------------------------------------|-------------------------------------------------|
Db|-------------------------------------------------|-------------------------------------------------|
Ab|-------------------------3-----------------------|-------------------------3-----5--3-----2--------|
Eb|-5-----5--5-----5--5-----------5--5-----5--5-----|-3-----5--5-----5--5-----------------------5-----|

Lead Eb|-------------------------------------------------|-------------------------------------------------|
Hb|-------12-------12-------------------------------|-------------------------------------------------|
Gb|-14b16----14b16----14----12bendfull14------------|-------------------------------------------------|
Db|----------------------------------------14releaseto12----------------------------------------------|
Ab|------------------------- slow bend + -----------|-------------------------------------------------|
Eb|---------------------- prebend on Dstring -------|-------------------------------------------------|
| | |
Rthm Eb|-------------------------------------------------|-------------------------------------------------|
Hb|-------------------------------------------------|-------------------------------------------------|
Gb|-------------------------------------------------|-------------------------------------------------|
Db|-------------------------------------------------|-------------------------------------------------|
Ab|-------------------------2-----------------------|-------------------------3-----5--3-----2--------|
Eb|-3-----3--3-----3--3-----------3--3-----3--3-----|-2-----3--3-----3--3-----------------------5-----|

Lead Eb|-------------------------------------------------|-------------------------------------------------|
Hb|----------5--------7-----8--------7--------5-----|-------------------------------------------------|
Gb|----------5--------7-----8--------7--------5-----|----------5--------4-----------------------------|
Db|----------5--------7-----8--------7--------5-----|----------5--------4-----7--------------------|
Ab|-------------------------------------------------|-------------------------7-----------------8-----|
Eb|-------------------------------------------------|-------------------------------------------------|
| | |
Rthm Eb|-------------------------------------------------|-------------------------------------------------|
Hb|-------------------------------------------------|-------------------------------------------------|
Gb|-------------------------------------------------|-------------------------------------------------|
Db|-------------------------------------------------|-------------------------------------------------|
Ab|-------------------------3-----------------------|-------------------------3-----5--3-----2--------|
Eb|-5-----5--5-----5--5-----------5--5-----5--5-----|-3-----5--5-----5--5-----------------------5-----|

Lead Eb|-------------------------------------------------|-------------------------------------------------|
Hb|-------------------------------------------------|-------------------------------------------------|
Gb|-------------------------------------------------|-------------------------------------------9-----|
Db|-------------------------------------------------|----------------------------------10-------------|
Ab|-7~~~~~~~~~~~~~~~~~~~~---7--------5--------------|-------------------------------------------------|
Eb|-------------------------------------------7-----|-0-----------------------------------------------|
| | |
Rthm Eb|-------------------------------------------------|-------------------------------------------------|
Hb|-------------------------------------------------|-------------------------------------------------|
Gb|-------------------------------------------------|-------------------------------------------------|
Db|-------------------------------------------------|-------------------------------------------------|
Ab|-------------------------2-----------------------|-------------------------3-----5--3-----2--------|
Eb|-3-----3--3-----3--3-----------3--3-----3--3-----|-2-----3--3-----3--3-----------------------5-----|

Lead Eb|-------------------------------------------------|-------------------------------------------------|
Hb|-------------------------------------------------|----------------------------------------------T--|
Gb|-7-----------------------------------------9-----|-7~~~~~~~-----------------------9bend10rel9---21p|
Db|-------------------10----7--------10-------------|-------------------10----7-----------------------|
Ab|-------------------------------------------------|-------------------------------------------------|
Eb|-------------------------------------------------|-------------------------------------------------|
| | |
Rthm Eb|-------------------------------------------------|-------------------------------------------------|
Hb|-------------------------------------------------|-------------------------------------------------|
Gb|-------------------------------------------------|-------------------------------------------------|
Db|-------------------------3-----------------------|-------------------------3-----5--3-----2--------|
Ab|-5-----5--5-----5--5-----------5--5-----5--5-----|-3-----5--5-----5--5-----------------------5-----|
Eb|-------------------------------------------------|-------------------------------------------------|

Lead Eb|-------------------------------------------------|-------------------------------------------------|
Hb|---T---T---T---T---T---T---T---T---T---T---T---T-|---T---T---T---T---T---T---T---T---T---T---------|
Gb|p9-21p9-21p9-21p9-21p9-21p9-19p9-19p9-19p9-19p9-19p9-19p9-17-|p9-17p9-17p9-17p9-17p9-17p9-16p9-16p9-16p9-16p9-16p9-\\-----|
Db|-------------------------------------------------|-------------------------------------------------|
Ab|-------------------------------------------------|-------------------------------------------------|
Eb|-------------------------------------------------|-------------------------------------------------|
| | |
Rthm Eb|-------------------------------------------------|-------------------------------------------------|
Hb|-------------------------------------------------|-------------------------------------------------|
Gb|-------------------------------------------------|-------------------------------------------------|
Db|-------------------------2-----------------------|-------------------------3-----5--3-----2--------|
Ab|-3-----3--3-----3--3-----------3--3-----3--3-----|-2-----3--3-----3--3-----------------------5-----|
Eb|-------------------------------------------------|-------------------------------------------------|

Lead Eb|-------------------------------------------------|-------------------------------------------------|
Hb|-------------------------------------------------|-------------------------------------------------|
Gb|-7------------------9----9b10--------------9-----|-9b10--------9-----7-----7-----------------------|
Db|-------------------------------------------------|-------------------------------------------------|
Ab|-------------------------------------------------|-------------------------------------------------|
Eb|-------------------------------------------------|-------------------------------------------------|
| | |
Rthm Eb|-------------------------------------------------|-------------------------------------------------|
Hb|-------------------------------------------------|-------------------------------------------------|
Gb|-------------------------------------------------|-------------------------------------------------|
Db|-------------------------3-----------------------|-------------------------3-----5--3-----2--------|
Ab|-5-----5--5-----5--5-----------5--5-----5--5-----|-3-----5--5-----5--5-----------------------5-----|
Eb|-------------------------------------------------|-------------------------------------------------|

Gtr.1Eb|-------------------------------------------------|-------------------------------------------5-----|
Gtr.2Hb|-5---------------------------------------5h6p5h6-|-7-----------------------------7-----8-----7-----|
Gb|-6--------6------------------------------6h7p6h7-|-8--------8--------------------8-----9-----------|
Db|----------7--------7-----------------------------|----------9--------9-----------------------------|
Ab|-------------------7-----------------------------|-------------------9-----------------------------|
Eb|-------------------------------------------------|-------------------------------------------------|
(3:19 - 3:55)
PART B: (two-harmony riff)
Gtr.1Eb||-7--5--3--5--7--5--3--5--7p5p3-7p5p3-7p5p3-7p5p3-|-5--3--2--3--5--3--2--3--5-~~~~~-----------------|
Gtr.2Hb||-8--7--5--7--8--7--5--7--8p7p5-8p7p5-8p7p5-8p7p5-|-7--5--4--5--7--5--4--5--7-~~~~~-----------------|
Gb||-------------------------------------------------|-------------------------------------------------|
Db||-------------------------------------------------|-------------------------------------------------|
Ab||-------------------------------------------------|-------------------------------------------------|
Eb||-------------------------------------------------|-------------------------------------------------|
|| | |
Bass Gb||-------------------------------------------------|-------------------------------------------------|
Db||-------------------------------------------------|-------------------------------------------------|
Ab||-7--7--7--7--7--7--7--7--7--7--7--7--7--7--7--7--|-------------------------------------------------|
Eb||-------------------------------------------------|-7--7--7--7--7--7--7--7--7--7--7--7--7--7--7--7--|

Gtr.1Eb|-8--7--5--7--8--7--5--7--8p7p5-8p7p5-8p7p5-8p7p5-|-------------------------------------------------|
Gtr.2Hb|-6--5--3--5--6--5--3--5--6p5p3-6p5p3-6p5p3-6p5p3-|-8--6--5--6--8--6--5--6--8-~~~~~-----------------|
Gb|-------------------------------------------------|-9--7--6--7--9--7--6--7--9-~~~~~-----------------|
Db|-------------------------------------------------|-------------------------------------------------|
Ab|-------------------------------------------------|-------------------------------------------------|
Eb|-------------------------------------------------|-------------------------------------------------|
| | |
Bass Gb|-------------------------------------------------|-------------------------------------------------|
Db|-------------------------------------------------|-------------------------------------------------|
Ab|-8--8--8--8--8--8--8--8--8--8--8--8--8--8--8--8--|-------------------------------------------------|
Eb|-------------------------------------------------|-5--5--5--5--5--5--5--5--5--5--5--5--5--5--5--5--|

Gtr.1Eb|-------------------------------------------------|-------------------------------------------------|
Gtr.2Hb|-8--6--4--6--8--6--4--6--8p6p4-8p6p4-8p6p4-8p6p4-|-6--4--3--4--6--4--3--4--6-~~~~~-----------------|
Gb|-8--7--5--7--8--7--5--7--8p7p5-8p7p5-8p7p5-8p7p5-|-7--5--4--5--7--5--4--5--7-~~~~~-----------------|
Db|-------------------------------------------------|-------------------------------------------------|
Ab|-------------------------------------------------|-------------------------------------------------|
Eb|-------------------------------------------------|-------------------------------------------------|
| | |
Bass Gb|-------------------------------------------------|-------------------------------------------------|
Db|-------------------------------------------------|-------------------------------------------------|
Ab|-6--6--6--6--6--6--6--6--6--6--6--6--6--6--6--6--|-------------------------------------------------|
Eb|-------------------------------------------------|-3--3--3--3--3--3--3--3--3--3--3--3--3--3--3--3--|

Gtr.1Eb|-------------------------------------------------|-------------------------------------------5-----||
Gtr.2Hb|-5---------------------------------------5h6p5h6-|-7-----------------------------7-----8-----7-----||
Gb|-6--------6------------------------------6h7p6h7-|-8--------8--------------------8-----9-----------||
Db|----------7--------7-----------------------------|----------9--------9-----------------------------||
Ab|-------------------7-----------------------------|-------------------9-----------------------------||
Eb|-------------------------------------------------|-------------------------------------------------||
| | ||
Bass Gb|-------------------------------------------------|-------------------------------------------------||
Db|-------------------------------------------------|-------------------------------------------------||
Ab|-------------------------------------------------|-------------------------------------------------||
Eb|-5--5--5--5--5--5--5--5--5--5--5--5--5--5--5--5--|-7--7--7--7--7--7--7--7--7--7--7--7--7--7--7--7--||
(3:55 - 4:30) CHORUS (*2 times)
(4:30 - 4:36)
OUTRO:
Gtr.1Eb|----------------------------------|---------------------------------|
Gtr.2Hb|----------------------------------|---------------------------------|
Gb|----------------------------------|---------------------------------|
Db|--3-3---3---3-----3-3---3---3-----|-3-3---3---3---3---3---3---3-----|
Ab|--3-3---3---3-----3-3---3---3-----|-3-3---3---3---3---3---3---3-----|
Eb|--1-1---1---1---1-1-1---1---1---1-|-1-1---1---1---1---1---1---1---0-|
Gtr.1Eb|----------------------------------|
Gtr.2Hb|----------------------------------|
Gb|----------------------------------|
Db|--2-2-2-2---2-2-------------------|
Ab|--2-2-2-2---2-2-------------------|
Eb|--0-0-0-0---0-0-------------------|
--------------------------------------------------------------------------------