.

( )

A                                                   

o pa O...
--------------------------------------------------------------------------------
Tempo: slow (78 bpm)
(0:01 - 0:25)
INTRO: (Gtr.1 - clean acoustic)
Gtr.1E|--1---------------0---------------|-------------------------0-------|
H|------3-------3-------3-------3---|-3---------------2-----------2---|
G|----------2---------------2-------|-----0---------------------------|
D|--0-------------------------------|---------------------------------|
A|------------------3---------------|-1-----------1---0---0-----------|
E|----------------------------------|---------3-----------------------|
Gtr.1E|--1---------------0---------------|---------------------------------|
H|------3-------3-------3-------3---|-3-------5-------3-------3-------|
G|----------2---------------2-------|-----0-------0-------2-------2---|
D|--0-------------------------------|-----------------0---0-----------|
A|------------------3---------------|-1-------3-----------------------|
E|----------------------------------|---------------------------------|
Gtr.1E|--1---0-----------0---------------|---------0---------------0-------|
H|----------3-----------3-------3---|-2-----------2-------2-----------|
G|--------------2-----------0-------|-----2-----------2---------------|
D|--0-------------------------------|---------------------------------|
A|------3-----------3---1-----------|-0-------------------------------|
E|----------------------------------|---------------------------------|
Gtr.1E|--1---0-----------0---------------|---------0-----------0-----------|
H|----------3-----------3-------3---|-2-----------2-----------2-------|
G|--------------2-----------0-------|-----2-----------2-----------2---|
D|--0-------------------------------|---------------------------------|
A|------3-----------3---1-----------|-0-------------------------------|
E|----------------------------------|---------------------------------|
(0:25 - 0:50)
VERSE 1:
VoiceE|--------------------------------------------------------------------|
H|--6----6----------5----5--------------------------------------------|
G|-----------------------------------7----7---------------------------|
D|--------------------------------------------8--8----7---------------|
A|--------------------------------------------------------------------|
E| Sno -va bro -shen v ok -na lunnyy svet -----------|
| | |
Gtr.1E|--1---------------0---------------|-------------------------0-------|
H|------3-------3-------3-------3---|-3---------------2-----------2---|
G|----------2---------------2-------|-----0---------------------------|
D|--0-------------------------------|---------------------------------|

A|------------------3---------------|-1-----------1---0---0-----------|
E|----------------------------------|---------3-----------------------|

VoiceE|--------------------------------------------------------------------|
H|--6----6----------5----5--------------------5---5---6---------------|
G|-----------------------------------7--7-----------------------------|
D|--------------------------------------------------------------------|
A|--------------------------------------------------------------------|
E| Dom moy son -nyy sereb - rom o -det. ---------|
| | |
Gtr.1E|--1---------------0---------------|---------------------------------|
H|------3-------3-------3-------3---|-3-------5-------3-------3-------|
G|----------2---------------2-------|-----0-------0-------2-------2---|
D|--0-------------------------------|-----------------0---0-----------|
A|------------------3---------------|-1-------3-----------------------|
E|----------------------------------|---------------------------------|

VoiceE|--------------------------------------------------------------------|
H|--6---5-----------5-------------------------------------------------|
G|----------------------7-------------6-------------------------------|
D|--------------------------------------------------------------------|
A|--------------------------------------------------------------------|
E| A - a a - a a........ --------------------|
| | |
Gtr.1E|--1---0-----------0---------------|---------0---------------0-------|
H|----------3-----------3-------3---|-2-----------2-------2-------2---|
G|--------------2-----------0-------|-----2-----------2---------------|
D|--0-------------------------------|---------------------------------|
A|------3-----------3---1-----------|-0-------------------------------|
E|----------------------------------|---------------------------------|

A - a a - a a...
Gtr.1E|--1---0-----------0---------------|---------0---------------0-------|
H|----------3-----------3-------3---|-2-----------2-------2-------2---|
G|--------------2-----------0-------|-----2-----------2---------------|
D|--0-------------------------------|---------------------------------|
A|------3-----------3---1-----------|-0-------------------------------|
E|----------------------------------|---------------------------------|
(0:50 - 1:14)
VERSE 2:
Lun -noy kis -ti ne dostich\' glubin.
Gtr.1E|--1---------------0---------------|-------------------------0-------|
H|------3-------3-------3-------3---|-3---------------2-----------2---|
G|----------2---------------2-------|-----0---------------------------|
D|--0-------------------------------|---------------------------------|
A|------------------3---------------|-1-----------1---0---0-----------|
E|----------------------------------|---------3-----------------------|
| | |
Gtr.2E|----------------------------------|---------------------------------|
H|----------------------------------|---------------------------------|
G|--------------------------2-------|-3-----------3---2-----------0h2-|
D|--0---------------2---3-----------|---------5---------------2h3-----|
A|----------------------------------|---------------------------------|
E|----------------------------------|---------------------------------|

E -tu bezdnu zna -yu ya o - din.
Gtr.1E|--1---------------0---------------|---------------------------------|
H|------3-------3-------3-------3---|-3-------5-------3-------3-------|
G|----------2---------------2-------|-----0-------0-------2-------2---|
D|--0-------------------------------|-----------------0---0-----------|
A|------------------3---------------|-1-------3-----------------------|
E|----------------------------------|---------------------------------|
| | |
Gtr.2E|----------------------------------|---------0---1-------------------|
H|----------------------------------|-3---------------3---------------|
G|--------------------------2-------|-----0---------------------------|
D|--0---------------2---3-----------|---------------------------------|
A|----------------------------------|---------------------------------|
E|----------------------------------|---------------------------------|
(1:15 - 1:39)
CHORUS: (distorted tone)
VoiceE|--------------------------------------------------------------------|
H|--------------------------------------------------------------------|
G|--------------------------------------------------------------------|
D|----4-------------4----5------7-----5-------------------------------|
A|--------------------------------------------------------------------|
E|- Vsyo, vsyo kak vche - ra -----------------------------|
| | |
Gtr.3E|--2-------------------------------|---------------------------------|
H|--3-------------------------------|---------------------------------|
G|--2-------------------------------|---------------------------------|
D|--0-------------------------------|-5-------------------------------|
A|----------------------------------|-5-------------------------------|
E|----------------------------------|-3-------------------------------|
| | |
Bass G|----------------------------------|---------------------------------|
D|--------------7p4p0-----4----7----|-5---------0h5h7-8-------8-7-5-7-|
A|--5-------------------------------|---------------------------------|
E|----------------------------------|---------------------------------|

VoiceE|--------------------------------------------------------------------|
H|--------------------------------------------------------------------|
G|--------------------------------------------------------------------|
D|----4-----------4------5------7-----5-------------------------------|
A|--------------------------------------------------------------------|
E|- Vsyo, vsyo kak vche - ra -----------------------------|
| | |
Gtr.3E|--2-------------------------------|---------------------------------|
H|--3-------------------------------|---------------------------------|
G|--2-------------------------------|-----------------3-------5-------|
D|--0-------------------------------|-5---------------3-------5-------|
A|----------------------------------|-5---------------1-------3-------|
E|----------------------------------|-3-------------------------------|
| | |
Bass G|----------------------------------|---------------------------------|
D|--4-----------7p4p0-----4----7----|-5-------------------------------|
A|----------------------------------|-----------------1-------3-------|
E|----------------------------------|---------------------------------|

VoiceE|--------------------------------------------------------------------|
H|--------------------------------------------------------------------|
G|-----------------------------------------------------5--------------|
D|----4-----------4------5------7-----8------------8-----------8------|
A|--------------------------------------------------------------------|
E|- Vsyo, vsyo kak vche - ra, no bez te - |
| | |
Gtr.3E|--2-------------------------------|---------------------------------|
H|--3-------------------------------|---------------------------------|
G|--2-------------------------------|---------------------------------|
D|--0-------------------------------|-5-----------------------------x-|
A|----------------------------------|-5-----------------------------x-|
E|----------------------------------|-3-----------------------------x-|
| | |
Bass G|----------------------------------|-----------------5---------------|
D|--------------7p4p0-----4----7----|-5---------0h5h7---------8-7-5\\--|
A|--5-------------------------------|---------------------------------|
E|----------------------------------|---------------------------------|

VoiceE|--------------------------------------------------------------------|
H|--------------------------------------------------------------------|
G|--------------------------------------------------------------------|
D|-----7--------------------------------------------------------------|
A|--------------------------------------------------------------------|
E|- bya.... -------------------------------------------------------|
| | |
Gtr.3E|----------------------------------|---------------------------------|
H|----------------------------------|---------------------------------|
G|----------------------------------|---------------------------------|
D|-xh7----------5-7-5---------------|-3-----------2-3-2---------------|
A|-xh7--------------5---------------|-3---------------0---------------|
E|-xh5--------------3---------------|-1---------------0---------------|
| | |
Bass G|----------------------------------|---------------------------------|
D|--------------------------------5h|-7-----------5-7-----------------|
A|--0-------------------------------|---------------------------------|
E|----------------------------------|---------------------------------|
(1:39 - 2:04) VERSE 3
(2:04 - 2:28)CHORUS
(2:29 - 3:17)
SOLO:
SynthE||---------------------------------|---------------------------------|
H||-6-------8-------10------11--10--|-8-----------6---5---------------|
G||-7-------9-------10------12--10--|-9-----------7---6---------------|
D||---------------------------------|---------------------------------|
A||---------------------------------|---------------------------------|
E||---------------------------------|---------------------------------|
SynthE|----------------------------------|---------------------------------|
H|--6-------8-------10------11--10--|-8-----------6---5---------------|
G|--7-------9-------10------12--10--|-9-----------7---6---------------|
D|----------------------------------|---------------------------------|
A|----------------------------------|---------------------------------|
E|----------------------------------|---------------------------------|
SynthE|----------------------------------|---------------------------------|
H|--6-------5-------3---------------|---------------------------------|
G|--7-------5-------3-----------3---|---------------------------------|
D|--------------------------5---5---|-7-------------------------------|
A|--------------------------5-------|-7-------------------------------|
E|----------------------------------|---------------------------------|
SynthE|----------------------------------|---------------------------------||
H|--6-------5-------3---------------|---------------------------------||
G|--7-------5-------3-----------3---|---------------------------------||
D|--------------------------5---5---|-7-------------------------------||
A|--------------------------5-------|-7-------------------------------||
E|----------------------------------|---------------------------------||
(3:18 - 4:07) CHORUS two more times.
(4:07 - 4:19) OUTRO:
Gtr. E|-------------- free time ----------------------------------------------------|
H|-------------------------------------------------------------------10--------|
G|--7--------------------------------7---9--9b11r9------------9h10h11----------|
D|--7----------------------------7-----------------12-9-12--12-----------------|
A|--5----------0-----5---7---9-------------------------------------------------|
E|-----------------------------------------------------------------------------|
Gtr. E|--12--12b14r12-10h12p10\\9h10p9-----------------------------------------------|
H|-------------------------------12-10------10-12-10---------------------------|
G|-------------------------------------11------------11-9-7-9-11-9-7h9p7-6-7-6-|
D|-----------------------------------------------------------------------------|
A|-----------------------------------------------------------------------------|
E|-----------------------------------------------------------------------------|
Gtr. E|-----------------------------------------------------------------------------|
H|-----------------------------------------------------------------------------|
G|-----------------------------------------------------------------------------|
D|--9-----7-----5--------------------------------------------------------------|
A|--------------------9-----7-----5-----4-----5--------------------------------|
E|-----------------------------------------------------------------------------|

--------------------------------------------------------------------------------