.

( )

A                                                   

a pa O...
Gtr I (Eb Ab Db Gb Bb Eb) - 'Untitled'
Gtr II (Eb Ab Db Gb Bb Eb) - 'Untitled'
Gtr III (Eb Ab Db Gb Bb Eb) - 'Untitled'
Gtr IV (Eb Ab Db Gb Bb Eb) - 'Untitled'
Intro - Riff 1
Fast Rock Q=202
4/4
Gtrs I, II
||------------------|----------------|-----------------|-------------------||
||o-----------------|----------------|-----------------|------------------o||
||------------------|----------------|-----------------|-------------------||
||------------------|----------------|-----------------|-------------------||
||o-----------------|-------------5--|-----------------|---------4-5-4-5--o||
||--6-0-0-3-0-0-6-0-|-0-3-0-0-6-0-3--|-6-0-0-3-0-0-6-0-|-0-3-0-0-2-3-2-3---||
|-------------------|------------------|-----------------|-------------------|
|-------------------|------------------|-----------------|-------------------|
|-------------------|------------------|-----------------|-------------------|
|-------------------|------------------|-----------------|-------------------|
|-------------------|---------------5--|-----------------|-----------4-5-4-5-|
|-6---0-0-3-0-0-6-0-|--0--3-0-0-6-0-3--|-6-0-0-3-0-0-6-0-|--0--3-0-0-2-3-2-3-|
|
| Gtr IV
| \3_____________________________________/
|-------------------|------------------|-----------------|-------------------|
|-0-----------------|-(0)--------------|-----------------|-------------------|
|-------------------|------------------|-0---------------|-(0)---------------|
|-------------------|------------------|-----------------|-------------------|
|-------------------|------------------|-----------------|-------------------|
|-------------------|------------------|-----------------|-------------------|
|-----------------|----------------|-----------------|--------------------|
|-----------------|----------------|-----------------|--------------------|
|-----------------|----------------|-----------------|--------------------|
|-----------------|----------------|-----------------|--------------------|
|-----------------|-------------5--|-----------------|--------------------|
|-6-0-0-3-0-0-6-0-|-0-3-0-0-6-0-3--|-6-0-0-3-0-0-6-0-|-0----3-0-0-0-0-0-0-|
|
| \3.5
|-5-5---3-5---3-5-|---5-5---5-5-3--|-5-----5---5-5---|-3------------------|
|-----------------|----------------|---3-------------|--------------------|
|-----------------|-------2--------|-----------------|--------------------|
|-----------------|----------------|-----------------|--------------------|
|-----------------|----------------|-----------------|--------------------|
|-----------------|----------------|-----------------|--------------------|
Verse
$
PM PM PM PM
||----------|-----------------|----------|------------------|
||o---------|-----------------|----------|------------------|
||----------|-----------------|----------|------------------|
||--2-------|-2----2-(2)---2--|-4--------|-4----4-(4)---4---|
||o-2-------|-2----2-(2)---2--|-4--------|-4----4-(4)---4---|
||--0-------|-0--0-0-(0)-0-0--|-2--------|-2--2-2-(2)-2-2---|
PM PM
|----------|-----------------|-----------|------------------|
|----------|-----------------|-----------|------------------|
|----------|-----------------|-2-------4-|-(4)--------------|
|-5--------|-5----5-(5)---5--|-2-------4-|-(4)--------------|
|-5--------|-5----5-(5)---5--|-0-------2-|-(2)-2-2-2-2-0----|
|-3--------|-3--3-3-(3)-3-3--|-----------|---------------3--|
PM PM PM PM
|----------|-----------------|----------|-----------------|
|----------|-----------------|----------|-----------------|
|----------|-----------------|----------|-----------------|
|-2--------|-2----2-(2)---2--|-4--------|-4----4-(4)---4--|
|-2--------|-2----2-(2)---2--|-4--------|-4----4-(4)---4--|
|-0--------|-0--0-0-(0)-0-0--|-2--------|-2--2-2-(2)-2-2--|
PM PM
|----------|-----------------|-----------|-------------------|
|----------|-----------------|-----------|-------------------|
|----------|-----------------|-2-------4-|-(4)---------------|
|-5--------|-5----5-(5)---5--|-2-------4-|-(4)---------------|
|-5--------|-5----5-(5)---5--|-0-------2-|-(2)-2-2-2-2-0---3-|
|-3--------|-3--3-3-(3)-3-3--|-----------|---------------3---|
PM
|-------------------|-----------------|----------|-----------|
|-------------------|-----------------|----------|-----------|
|-------------------|-------2-5-0-----|-4--------|-3----2----|
|-----------2---2-4-|-5-4-5-------2---|-4--------|-3----2----|
|-(3)-2-3-5---5-----|-----------------|-2--------|-1----0----|
|-------------------|---------------0-|----------|-----------|
1.
|-----------------|----------------|-----------------|-----------------|
|-----------------|----------------|-----------------|-----------------|
|-----------------|----------------|-----------------|-----------------|
|-----------------|----------------|-----------------|-----------------|
|-----------------|-------------5--|-----------------|---------4-5-4-5-|
|-6-0-0-3-0-0-6-0-|-0-3-0-0-6-0-3--|-6-0-0-3-0-0-6-0-|-0-3-0-0-2-3-2-3-|
|-----------------|----------------|-----------------|------------------||
|-----------------|----------------|-----------------|-----------------o||
|-----------------|----------------|-----------------|------------------||
|-----------------|----------------|-----------------|------------------||
|-----------------|-------------5--|-----------------|-----------------o||
|-6-0-0-3-0-0-6-0-|-0-3-0-0-6-0-3--|-6-0-0-3-0-0-6-0-|-0-3-0-0-0-0-0-0--||
2.,D.S.
|-----------------|----------------|-----------------|-----------------|
|-----------------|----------------|-----------------|-----------------|
|-----------------|----------------|-----------------|-----------------|
|-----------------|----------------|-----------------|-----------------|
|-----------------|-------------5--|-----------------|---------1-0-----|
|-6-0-0-3-0-0-6-0-|-0-3-0-0-6-0-3--|-6-0-0-3-0-0-6-0-|-0-3-0-0-----4-3-|
Pre-Chorus
|----------|-------------|------------|-------------|
|----------|-------------|------------|-------------|
|----------|-----------5-|-(5)--------|-(5)---------|
|-4--------|-(4)-------5-|-(5)--------|-(5)-------5-|
|-4--------|-(4)-------3-|-(3)--------|-(3)-------5-|
|-2--------|-(2)---------|------------|-----------3-|
PM PM
|------------|------------|-----------------|-----|
|------------|------------|-----------------|-----|
|------------|------------|-7----7-(7)---7--|-----|
|-(5)--------|-(5)--------|-7----7-(7)---7--|-----|
|-(5)--------|-(5)--------|-5--5-5-(5)-5-5--|-----|
|-(3)--------|-(3)--------|-----------------|-----|
Chorus
Gtr I
||------------------|----------------------|
||o-----------------|----------------------|
||------------------|----------------------|
||--2---------------|-(2)------------------|
||o-2---------------|-(2)------------------|
||--0---------------|-(0)------------------|
|
| Gtr II
||------------------|----------------------|
||o-----------------|----------------------|
||------------------|----------------------|
||------------------|----------------------|
||o-7-7-7-7-7-7-7-7-|-10--10-10-9-9-9-10\--|
||------------------|----------------------|
PM
|-----------------|--------------------|
|-----------------|--------------------|
|-5---------------|-5-----0-(0)--------|
|-5---------------|-5-----0-(0)--------|
|-3---------------|-3-----2-(2)--------|
|-----------------|---------------3----|
|
|-----------------|--------------------|
|-----------------|--------------------|
|-----------------|--------------------|
|-----------------|--------------------|
|-3-3-3-3-3-3-3-3-|-3-3-3-3--3--3-3-3--|
|-----------------|--------------------|

|-------------------------|----------------------|
|-------------------------|----------------------|
|-------------------------|----------------------|
|--5----------------------|-(5)------------------|
|--5----------------------|-(5)------------------|
|--3----------------------|-(3)------------------|
|
|-------------------------|----------------------|
|-------------------------|----------------------|
|-------------------------|----------------------|
|-------------------------|----------------------|
|-10-10-10-10-10-10-10-10-|-10--10-10-9-9-9-10\--|
|-------------------------|----------------------|
1. 2.
To Coda
|-----------------|-----------------||----------|
|-3---------------|-------------3--o||----------|
|-2---------------|-------------2---||----------|
|-0---------------|-------------0---||----------|
|-----------------|-2-----2--------o||----------|
|-----------------|-----------------||----------|
|
|-----------------|-----------------||----------|
|-----------------|----------------o||----------|
|-----------------|-----------------||----------|
|-----------------|-----------------||----------|
|-5-5-5-5-5-5-5-5-|-------------5--o||----------|
|-----------------|-7-7-7-7-7-7-----||-7--------|
Riff 2
Gtrs I, II
||---------------|--------------|--------------|------------------||
||o--------------|--------------|--------------|-----------------o||
||---------------|--------------|--------------|------------------||
||---------------|--------------|--------------|------------------||
||o-2-2--2--2--2-|---2--2--2--2-|---2--2--2----|-----------------o||
||--0-0--0--0--0-|-3-0--0--0--0-|-5-0--0--0--0-|-6-0-5-0-3-0-5----||
||---------------|--------------|--------------|-----------------||
||o--------------|--------------|--------------|----------------o||
||---------------|--------------|--------------|-----------------||
||---------------|--------------|--------------|-----------------||
||o-4-4--4--4--4-|-0-4--4--4--4-|-2-4--4--4----|-3---2-------2--o||
||--2-2--2--2--2-|---2--2--2--2-|---2--2--2--2-|---2---2-5-2-----||
Guitar Solo
Gtr III
|---------12-----------12-----------12-----------12---|----------12-----------12-------------------------------|
|-15b17--------15b17--------15b17--------15b17--------|--15b17--------15b17--------15b17r=(15)p==12-------12---|
|-----------------------------------------------------|----------------------------------------------14--------|
|-----------------------------------------------------|--------------------------------------------------------|
|-----------------------------------------------------|--------------------------------------------------------|
|-----------------------------------------------------|--------------------------------------------------------|
|
| Gtrs I, II
|-----------------------------------------------------|--------------------------------------------------------|
|-----------------------------------------------------|--------------------------------------------------------|
|-----------------------------------------------------|--------------------------------------------------------|
|-----------------------------------------------------|--------------------------------------------------------|
|--2-------2------------2------------2------------2---|-----------2------------2---------------2-----------2---|
|--0-------0------------0------------0------------0---|---3-------0------------0---------------0-----------0---|
|-------------------------12---12-----------12---|-----------------------------------------------|
|--15b17----------15b17-------------15b17--------|--15b17-------17b20-------17b20-------17b20----|
|------------------------------------------------|-----------------------------------------------|
|------------------------------------------------|-----------------------------------------------|
|------------------------------------------------|-----------------------------------------------|
|------------------------------------------------|-----------------------------------------------|
|
|------------------------------------------------|-----------------------------------------------|
|------------------------------------------------|-----------------------------------------------|
|------------------------------------------------|-----------------------------------------------|
|------------------------------------------------|-----------------------------------------------|
|----------2-------2------------2----------------|-----------------------------------------------|
|---5------0-------0------------0------------0---|---6------0----5------0----3------0----5-------|
|-15---17b19====(17)---17---17---17---17---17--|-17---17r=(17)p=15---------------------------|
|----------------------------------------------|---------------------17---17---17---15S==12--|
|----------------------------------------------|---------------------------------------------|
|----------------------------------------------|---------------------------------------------|
|----------------------------------------------|---------------------------------------------|
|----------------------------------------------|---------------------------------------------|
|
|----------------------------------------------|---------------------------------------------|
|----------------------------------------------|---------------------------------------------|
|----------------------------------------------|---------------------------------------------|
|----------------------------------------------|---------------------------------------------|
|--2----2---------------2---------2---------2--|-------2--------------2---------2---------2--|
|--0----0---------------0---------0---------0--|--3----0--------------0---------0---------0--|
|------------------------------------------------|
|-15--12-----------------------------------------|
|----------14--12h=14p==12--14--12---------------|
|------------------------------------14--14---12-|
|------------------------------------------------|
|------------------------------------------------|
|
|------------------------------------------------|
|------------------------------------------------|
|------------------------------------------------|
|------------------------------------------------|
|--------2------------2------------2-------------|
|--5-----0------------0------------0-----------0-|
|------------------------------------------------|
|------------------------------------------------|
|------------------------------------------------|
|-14--12-----------------------------------------|
|----------14--12h=14p==12--14--12---------------|
|------------------------------------15--12--14--|
|
|------------------------------------------------|
|------------------------------------------------|
|------------------------------------------------|
|------------------------------------------------|
|------------------------------------------------|
|--6-----0------5-----0------3-----0------5------|
|----------------------------------|-----------------------------------------|
|----------------------------------|-----------------------------------------|
|---------------14------11---------|-17---14---17---14---(14)---17-----------|
|-------11------14------11---------|-17---14---17---14---(14)---17-----------|
|--14---------------------------0--|------------------------------------14\--|
|----------------------------------|-----------------------------------------|
|
|----------------------------------|-----------------------------------------|
|----------------------------------|-----------------------------------------|
|----------------------------------|-----------------------------------------|
|----------------------------------|-----------------------------------------|
|---4----4-------4-------4------4--|--0----4---------4-----------4-------4---|
|---2----2-------2-------2------2--|-------2---------2-----------2-------2---|
|------------------------------------------------------|-------------------------------------------------|
|-15b17====(15)r------15b17====(15)-------15b17========|==(15)r-------17b20-------17b20-------17b20------|
|------------------------------------------------------|-------------------------------------------------|
|------------------------------------------------------|-------------------------------------------------|
|------------------------------------------------------|-------------------------------------------------|
|------------------------------------------------------|-------------------------------------------------|
|
|------------------------------------------------------|-------------------------------------------------|
|------------------------------------------------------|-------------------------------------------------|
|------------------------------------------------------|-------------------------------------------------|
|------------------------------------------------------|-------------------------------------------------|
|--2---------4---------4--------------4----------------|----3----------2-----------------------2---------|
|------------2---------2--------------2------------2---|----------2-----------2----5------2--------------|
|-------------------------------------------------------|
|--17p=14----------------14--17p=14----------------14---|
|-----------16--14--16----------------16--14--16--------|
|-------------------------------------------------------|
|-------------------------------------------------------|
|-------------------------------------------------------|
|
|-------------------------------------------------------|
|-------------------------------------------------------|
|-------------------------------------------------------|
|-------------------------------------------------------|
|---4-----4------------4------------4------------4------|
|---2-----2------------2------------2------------2------|

\1______________________________\1.5____
|----------------------------------------------------------------------------|---------------------------------------------------------------------------------------|
|-17p===14------------------------14----17p==14-------------------14----17p==|==14------------------14---17p==14--------------------14---17p==14---------------------|
|--------------16----14----16----------------------16---14---16--------------|-------16---14---16------------------16---14---16--------------------16---14---16------|
|----------------------------------------------------------------------------|---------------------------------------------------------------------------------------|
|----------------------------------------------------------------------------|---------------------------------------------------------------------------------------|
|----------------------------------------------------------------------------|---------------------------------------------------------------------------------------|
|
|----------------------------------------------------------------------------|---------------------------------------------------------------------------------------|
|----------------------------------------------------------------------------|---------------------------------------------------------------------------------------|
|----------------------------------------------------------------------------|---------------------------------------------------------------------------------------|
|----------------------------------------------------------------------------|---------------------------------------------------------------------------------------|
|--0--------4------------------4-----------------4--------------------4------|---2---------4-------------------4---------------------4-------------------------------|
|-----------2------------------2-----------------2--------------------2------|-------------2-------------------2---------------------2-------------------2-----------|
\2.5__________________________________________/
|----------------------------------------------------------------------------------|
|--14----17p===14------------------------14---17p==14--------------------14---17---|
|-------------------16-----14---16-----------------------16---14----16-------------|
|----------------------------------------------------------------------------------|
|----------------------------------------------------------------------------------|
|----------------------------------------------------------------------------------|
|
|----------------------------------------------------------------------------------|
|----------------------------------------------------------------------------------|
|----------------------------------------------------------------------------------|
|----------------------------------------------------------------------------------|
|---3------------------2-----------------------------------------2-----------------|
|-----------2--------------------2-------------5-------2---------------------------|
Riff 3
Gtr I
|-------------|-----------------|-------------|-----------------|
|-------------|-----------------|-------------|-----------------|
|----------5--|-7---7-(7)-5-----|----------5--|-7---7-(7)-5-----|
|-5---9-------|--------------9--|-5---9-------|--------------9--|
|-------------|-----------------|-------------|-----------------|
|-------------|-----------------|-------------|-----------------|
|
| Gtr II
|-------------|-----------------|-------------|-----------------|
|-------------|-----------------|-------------|-----------------|
|-------------|-----------------|-------------|-----------------|
|----------7--|-9---9-(9)-7-----|----------7--|-9---9-(9)-7-----|
|-7--10-------|-------------10--|-7--10-------|-------------10--|
|-------------|-----------------|-------------|-----------------|
|-------------|-----------------|-----------------|-----------------|
|-------------|-----------------|-----------------|-----------------|
|----------5--|-7---7-(7)-5-----|-----11-----9----|-7----5-(5)---7--|
|-5---9-------|--------------9--|--9------7-----5-|----4-------5----|
|-------------|-----------------|-----------------|-----------------|
|-------------|-----------------|-----------------|-----------------|
|
|-------------|-----------------|-----------------|-----------------|
|-------------|-----------------|-----------------|-----------------|
|-------------|-----------------|-----------------|-----------------|
|----------7--|-9---9-(9)-7-----|-----12----10----|-9----7-(7)---9--|
|-7--10-------|-------------10--|-10------9-----7-|----5-------7----|
|-------------|-----------------|-----------------|-----------------|
|-------------|-----------------|-------------|-----------------|
|-------------|-----------------|-------------|-----------------|
|----------5--|-7---7-(7)-5-----|----------5--|-7---7-(7)-5-----|
|-5---9-------|--------------9--|-5---9-------|--------------9--|
|-------------|-----------------|-------------|-----------------|
|-------------|-----------------|-------------|-----------------|
|
|-------------|-----------------|-------------|-----------------|
|-------------|-----------------|-------------|-----------------|
|-------------|-----------------|-------------|-----------------|
|----------7--|-9---9-(9)-7-----|----------7--|-9---9-(9)-7-----|
|-7--10-------|-------------10--|-7--10-------|-------------10--|
|-------------|-----------------|-------------|-----------------|
|-------------|-----------------|-----------------|-----------------|
|-------------|-----------------|-----------------|-----------------|
|----------5--|-7---7-(7)-5-----|-----11-----9----|-7----5-(5)---7--|
|-5---9-------|--------------9--|--9------7-----5-|----4-------5----|
|-------------|-----------------|-----------------|-----------------|
|-------------|-----------------|-----------------|-----------------|
|
|-------------|-----------------|-----------------|-----------------|
|-------------|-----------------|-----------------|-----------------|
|-------------|-----------------|-----------------|-----------------|
|----------7--|-9---9-(9)-7-----|-----12----10----|-9----7-(7)---9--|
|-7--10-------|-------------10--|-10------9-----7-|----5-------7----|
|-------------|-----------------|-----------------|-----------------|
Riff 4
Gtrs I, II
PM PM PM PM PM--------| PM PM PM PM----|
|---------------|------------------|---------------|------------------|
|---------------|------------------|---------------|------------------|
|---------------|------------------|---------------|------------------|
|---9----7----5-|-(5)---4----------|---9----7----5-|-(5)---4----------|
|---7----5----3-|-(3)---2----------|---7----5----3-|-(3)---2----------|
|-0----0----0---|-----0----5-3-2-3-|-0----0----0---|-----0----5-3-2-3-|
D.S. al Coda
Gtr I
PM PM PM PM PM--------| PM PM PM PM----|
|---------------|------------------|---------------|------------------||
|---------------|------------------|---------------|------------------||
|---------------|------------------|---------------|------------------||
|---9----7----5-|-(5)---4----------|---9----7----5-|-(5)---4----------||
|---7----5----3-|-(3)---2----------|---7----5----3-|-(3)---2----------||
|-0----0----0---|-----0----5-3-2-3-|-0----0----0---|-----0----5-3-2-3-||
|
| Gtr II
| PM PM PM PM PM--------| PM PM PM PM----|
|---------------|------------------|---------------|------------------||
|---8----7----5-|-(5)---3----------|---8----7----5-|-(5)---3----------||
|---9----7----5-|-(5)---4----------|---9----7----5-|-(5)---4----------||
|---9----7----5-|-(5)---4----------|---9----7----5-|-(5)---4----------||
|---7----5----3-|-(3)---2--3-2-0---|---7----5----3-|-(3)---2--3-2-0---||
|-0----0----0---|-----0----------3-|-0----0----0---|-----0----------3-||
Outro
&
Gtrs I, II
|-----------------|----------------|-----------------|----------------*|
|-----------------|----------------|-----------------|----------------*|
|-----------------|----------------|-----------------|----------------*|
|-----------------|----------------|-----------------|----------------*|
|-----------------|-------------5--|-----------------|---------4-5-4--*|
|-6-0-0-3-0-0-6-0-|-0-3-0-0-6-0-3--|-6-0-0-3-0-0-6-0-|-0-3-0-0-2-3-2--*|