.

( )

A                                                   

Oe
INTRO:
(0:01 - 0:13)
RIFF 1:
Gtr.1E|-------------------------|-------------------------|-------------------------|-------------------------|
H|-------------------------|-------------------------|-------------------------|-------------------------|
G|-----------------echo----|-----echo-------echo-----|------------------echo---|-----echo-------echo-----|
D|-----2---2---------------|-(2)---------------------|-----2---2---------------|-(2)---------------------|
A|-----2---2---------------|-(2)---------------------|-----2---2---------------|-(2)---------------------|
E|-0-----------------------|-------------------------|-0-----------------------|-------------------------|
. .
Gtr.1E|-------------------------|-------------------------|-------------------------|--- 7/8 measure -------------|
H|-------------------------|-------------------------|-------------------------|-----------------------------|
G|-----------------echo----|----------------echo-----|-------------------------|-----------------------------|
D|-----2---2---------------|-----2---2---------------|-----2-------2-------2---|-----2-----------power slide-|
A|-----2---2---------------|-----2---2---------------|-----2-------2-------2---|-----2----------/x---\\------|
E|-0-----------------------|-0-----------------------|-0-------0-------0-------|-0-------0---0---------------|
. . . . . . . .
(0:13 - 0:25)
RIFF 2:
Gtr.1E|-------------------------|-------------------------|-------------------------|-------------------------|
H|-------------------------|-------------------------|-------------------------|-------------------------|
G|-------------------------|-------------------------|-------------------------|-------------------------|
D|-------------------------|-------------------------|-7---7---7---7-7---7-7-\-|-4---4---4---4-4---4-4---|
A|-------------------------|-------------------------|-5---5---5---5-5---5-5-\-|-2---2---2---2-2---2-2---|
E|-0---7---0---6~~~~---3---|-0---7---0---6~~~~---3---|-------------------------|-------------------------|
| | | | |
Gtr.2E|-------------------------|-------------------------|-------------------------|-------------------------|
H|-------------------------|-12~~~~~~~~--------------|-10~~~~~~~~--------8h10p8-\7-----------------------|
G|-9~~~~~~~~-------11--12--|----------------12---9---|-------------------------|-------------7-----------|
D|-------------------------|-------------------------|-------------------------|-------------------------|
A|-------------------------|-------------------------|-------------------------|-------------------------|
E|-------------------------|-------------------------|-------------------------|-------------------------|

Gtr.1E|-------------------------|-------------------------|-------------------------|-------------------------|
H|-------------------------|-------------------------|-------------------------|-------------------------|
G|-------------------------|-------------------------|-------------------------|-------------------------|
D|-------------------------|-------------------------|-7-----------------------|-4-----------------------|
A|-------------------------|-------------------------|-5-----------------------|-2-----------------------|
E|-0---7---0---6~~~~---3---|-0---7---0---6~~~~---3---|-------------------------|-------------------------|
| | | | |
Gtr.2E|-------------------------|-------------------------|-------------------------|-------------10~~~~~-----|
H|-------------------------|-12~~~~~~~~--------------|-10~~~~~~~~--------8h10p8-\7-----------------------|
G|-9~~~~~~~~-------11--12--|----------------12---9---|-------------------------|-------------------------|
D|-------------------------|-------------------------|-------------------------|-------------------------|
A|-------------------------|-------------------------|-------------------------|-------------------------|
E|-------------------------|-------------------------|-------------------------|-------------------------|
(0:26 - 0:38)
RIFF 2A:
Gtr.1E|-------------------------|-------------------------|-------------------------|-------------------------|
H|-------------------------|-------------------------|-------------------------|-------------------------|
G|-------------------------|-------------------------|-------------------------|-------------------------|
D|-------------------------|-------------------------|-7---7---7---7-7---7-7-\-|-4---4---4---4-4---4-4---|
A|-------------------------|-------------------------|-5---5---5---5-5---5-5-\-|-2---2---2---2-2---2-2---|
E|-0---7---0---6~~~~---3---|-0---7---0---6~~~~---3---|-------------------------|-------------------------|
| | | | |
Gtr.2E|-------------------------|-12~~~~~~~~--------------|-10~~~~~~~~--------7h8p7-\-5-----------------------|
Gtr.3H|-8~~~~~~~~-------10--12--|-12~~~~~~~~-----12---8---|-10~~~~~~~~--------8h10p8-\7-----------7-----------|
G|-9~~~~~~~~-------11--12--|----------------12---9---|-------------------------|-------------7-----------|
D|-------------------------|-------------------------|-------------------------|-------------------------|
A|-------------------------|-------------------------|-------------------------|-------------------------|
E|-------------------------|-------------------------|-------------------------|-------------------------|

Gtr.1E|-------------------------|-------------------------|-------------------------|-------------------------|
H|-------------------------|-------------------------|-------------------------|-------------------------|
G|-------------------------|-------------------------|-------------------------|-------------------------|
D|-------------------------|-------------------------|-7-----------------------|-4-----------------------|
A|-------------------------|-------------------------|-5-----------------------|-2-----------------------|
E|-0---7---0---6~~~~---3---|-0---7---0---6~~~~---3---|-------------------------|-------------------------|
| | | | |
Gtr.2E|-------------------------|-12~~~~~~~~--------------|-10~~~~~~~~--------7h8p7-\-5-----------14~~~~~-----|
Gtr.3H|-8~~~~~~~~-------10--12--|-12~~~~~~~~-----12---8---|-10~~~~~~~~--------8h10p8-\7-----------15~~~~~-----|
G|-9~~~~~~~~-------11--12--|----------------12---9---|-------------------------|-------------------------|
D|-------------------------|-------------------------|-------------------------|-------------------------|
A|-------------------------|-------------------------|-------------------------|-------------------------|
E|-------------------------|-------------------------|-------------------------|-------------------------|
(0:38 - 1:04)
VERSE 1:
VoiceE|-------------------------------------------------------------------------------------------------------|
H|---5---------------------------------------------------------------------------------------------------|
G|---------------------------7---------------------------------------------------------------------------|
D|-------------------------------------------7-----5--7--------------------------5-------5---------------|
A|--------------------------------------------------------7----7-------7----7---------7------------------|
E| Kto - o vzyal moy hrustal'nyy shar, ne spro - siv menya? ------------|
| | | | |
Gtr.1E|-------------------------|-------------------------|-------------------------|-------------------------|
+ H|-------------------------|-------------------------|-------------------------|-------------------------|
bass G|-----R-----------R-------|-----R-----------R-------|-----R-----------R-------|-------------------------|
D|-2---E-----------E-------|-2---E-----------E-------|-2---E-----------E-------|-2-----------------------|
A|-2---S-----------S-------|-2---S-----------S-------|-2---S-----------S-------|-2-----------3---3-------|
E|-0---T---0---0---T---0---|-0---T---0---0---T---0---|-0---T---0---0---T---0---|-0-------0-----------0---|
| > . | > . | > . | > |
Gtr.2E|-------------------------|-------------------------|-------------------------|-------------------------|
H|-------------------------|-------------------------|-------------------------|-------------------------|
G|---------9---9---9-------|---------7---7---7-------|---------6---6---6-------|---------5---5---5-------|
D|-------------------------|-------------------------|-------------------------|-------------------------|
A|-------------------------|-------------------------|-------------------------|-------------------------|
E|-------------------------|-------------------------|-------------------------|-------------------------|

VoiceE|-------------------------------------------------------------------------------------------------------|
H|---5---------------------------------------------------------------------------------------------------|
G|---------------------------7---------------------------------------------------------------------------|
D|-------------------------------------------7---5----7--------------------------5-------5---------------|
A|--------------------------------------------------------7--7---------7----7------7---------------------|
E| Kto - o mne ya - du podmeshal sre - di bela dnya? -----------|
| | | | |
Gtr.1E|-------------------------|-------------------------|-------------------------|-------------------------|
+ H|-------------------------|-------------------------|-------------------------|-------------------------|
bass G|-----R-----------R-------|-----R-----------R-------|-----R-----------R-------|-------------------------|
D|-2---E-----------E-------|-2---E-----------E-------|-2---E-----------E-------|-2---------- power slide-|
A|-2---S-----------S-------|-2---S-----------S-------|-2---S-----------S-------|-2-----------x-\\\-------|
E|-0---T---0---0---T---0---|-0---T---0---0---T---0---|-0---T---0---0---T---0---|-0-----------------------|
| > . | > . | > . | > |
Gtr.2E|-------------------------|-------------------------|-------------------------|-------------------------|
H|-------------------------|-------------------------|-------------------------|-------------------------|
G|---------9---9---9-------|---------7---7---7-------|---------6---6---6-------|---------5---5---5-------|
D|-------------------------|-------------------------|-------------------------|-------------------------|
A|-------------------------|-------------------------|-------------------------|-------------------------|
E|-------------------------|-------------------------|-------------------------|-------------------------|

VoiceE|-------------------------------------------------------------------------------------------------------|
H|-------------------------------------------------------------------------------------------------------|
G|-------------------------------------------------------------------------------------------------------|
D|------------4-----4---5----7------7----5-------4-------------------------------------------------------|
A|-----------------------------------------------------7-------------------------------------------------|
E|-------- Stoy, gde o - cher - chen me - lom krug. ---------------------------------------|
| | | | |
Gtr.1E|-------------------------|-------------------------|-------------------------|-------------------------|
H|-------------------------|-------------------------|-------------------------|-------------------------|
G|-------------------------|-------------------------|-------------------------|-------------------------|
D|-7-----------------------|-(7)---------------------|-------------9-----------|-------------9-8---------|
A|-5-----------------------|-(5)---------------------|-------------7-----------|-------------7-6---------|
E|-------------------------|-------------------------|-0---0---0---------------|-0---0---0-----------0---|
> . . . > . . . > > .

VoiceE|-------------------------------------------------------------------------------------------------------|
H|-------------------------------------------------------------------------------------------------------|
G|-------------------------------------------------------------------------------------------------------|
D|------------4-----4---5----7------7---------5--7-----8------------------------7------------------------|
A|-------------------------------------------------------------------------------------------------------|
E|-------- Kak mne pri - ya - ten tvoy is - puuuuuuuuuuuuuuuuuu - uuuuuuug. ------------|
| | | | |
Gtr.1E|-------------------------|-------------------------|-------------------------|-------------------------|
H|-------------------------|-------------------------|-------------------------|-------------------------|
G|-------------------------|-------------------------|-------------------------|-------------------------|
D|-7-----------------------|-(7)---------------------|-5-----------------------|-7-----------------------|
A|-5-----------------------|-(5)---------------------|-3-----------------------|-5-----------------------|

E|-------------------------|-------------------------|-------------------------|-------------------------|
(1:04 - 1:29) VERSE 2
(1:29 - 1:54)
CHORUS:
VoiceE|-------------------------------------------------------------------------------------------------------|
H|-------------------------------------------------------------------------------------------------------|
G|------4------3-----------------4-------3---------------------------------------------------------------|
D|--2------2-----------5-----2-------2-----------5-----4--4----4---4-------------------------------------|
A|-------------------------------------------------------------------------------------------------------|
E| Da, ya otshel' - nik, mag i volsheb - nik, tyazhek moy put'. --------------------------------|
| | | | |
Gtr.1E|-------------------------|-------------------------|-------------------------|-------------------------|
H|-------------------------|-------------------------|-------------------------|-------------------------|
G|-------------------------|-------------------------|-------------------------|-------------------------|
D|-------------------------|-------------------------|-7---7---7---7-7---7-7-\-|-4---4---4---4-4---4-4---|
A|-------------------------|-------------------------|-5---5---5---5-5---5-5-\-|-2---2---2---2-2---2-2---|
E|-0---7---0---6~~~~~--3---|-0---7---0---6~~~~~--3---|-------------------------|-------------------------|

VoiceE|-------------------------------------------------------------------------------------------------------|
H|-------------------------------------------------------------------------------------------------------|
G|-----4-------3-----------------4-------3-------------2-------------------------------------------------|
D|--2------2-----------5-----2--------2----------5-----------------5-------------4-----------------------|
A|-------------------------------------------------------------------------------------------5-----------|
E| drevni - e tay - ny vseh mi - rozda - niy mne pod si - lu. ---|
| | | | |
Gtr.1E|-------------------------|-------------------------|-------------------------|-------------------------|
H|-------------------------|-------------------------|-------------------------|-------------------------|
G|-------------------------|-------------------------|-------------------------|-------------------------|
D|-------------------------|-------------------------|-5-----------------------|-7-----------------------|
A|-------------------------|-------------------------|-3-----------------------|-5-----------------------|
E|-0---7---0---6~~~~~--3---|-0---7---0---6~~~~~--3---|-------------------------|-------------------------|
VoiceE|-------------------------------------------------------------------------------------------------------|
H|-------------------------------------------------------------------------------------------------------|
G|-----4-------3------------------4------3---------------------------------------------------------------|
D|--2-----2------------5-----2-------2-----------5-----4---4---4---4-------------------------------------|
A|-------------------------------------------------------------------------------------------------------|
E| Ya zakli - na - yu i prevrascha - yu v zo -lo -to rtut'. --------------------------------|
| | | | |
Gtr.1E|-------------------------|-------------------------|-------------------------|-------------------------|
H|-------------------------|-------------------------|-------------------------|-------------------------|
G|-------------------------|-------------------------|-------------------------|-------------------------|
D|-------------------------|-------------------------|-7---7---7---7-7---7-7-\-|-4---4---4---4-4---4-4---|
A|-------------------------|-------------------------|-5---5---5---5-5---5-5-\-|-2---2---2---2-2---2-2---|
E|-0---7---0---6~~~~~--3---|-0---7---0---6~~~~~--3---|-------------------------|-------------------------|

VoiceE|-------------------------------------------------------------------------------------------------------|
H|-------------------------------------------------------------------------------------------------------|
G|-----4-------3-----------------4--------3------------2-------------------------------------------------|
D|--2-----2------------5-----2-----2-------------5-----------------5-------------4-----------------------|
A|-------------------------------------------------------------------------------------------5-----------|
E| stanu to - bo - yu, ty stanesh' mno - yu, ver - nym sy - nom ---|
| | | | |
Gtr.1E|-------------------------|-------------------------|-------------------------|-------------------------|
H|-------------------------|-------------------------|-------------------------|-------------------------|
G|-------------------------|-------------------------|-------------------------|-------------------------|
D|-------------------------|-------------------------|-5-----------------------|-7-----------------------|
A|-------------------------|-------------------------|-3-----------------------|-5-----------------------|
E|-0---7---0---6~~~~~--3---|-0---7---0---6~~~~~--3---|-------------------------|-------------------------|
(1:55 - 2:07)
RIFF 3:
VoiceE|-------------------------------------------------------------------------------------------------------|
H|-------------------------------------------------------------------------------------------------------|
G|-------------------------------------------------------------------------------------------------------|
D|---2---------------------------------------------------------------------------------------------------|
A|-------------------------------------------------------------------------------------------------------|
E| zlaaaaaaaaaaaaaaaaaaaaa........... -------------------------------------------------|
| | | | |
Bass G|-----R-----------R-------|-----R-------------------|-----R-----------R-------|-----R-------------------|
D|-----E-----------E-------|-----E-------------------|-----E-----------E-------|-----E-------------------|
A|-----S-----------S-------|-----S-------------------|-----S-----------S-------|-----S-------------------|
E|-0---T---0---0---T---0---|-0---T---0---0---5---3---|-0---T---0---0---T---0---|-0---T---0---0---5---3---|
| | | | |
Gtr.1E|-------------------------|-------------------------|-------------------------|-------------------------|
H|-------------------------|-------------------------|-------------------------|-------------------------|
G|-------------------------|-------------------------|-------------------------|-------------------------|
D|-----9-----------8-------|-----7-----------7-------|-----9-----------8-------|-----7-----------7-------|
A|---------10----------10--|---------10----------10--|---------10----------10--|---------10----------10--|
E|-0-----------0-----------|-0-----------0-----------|-0-----------0-----------|-0-----------0-----------|
. > . . > . . > . . > . . > . . > . . > . . > .

Gtr.1E|-------------------------|-------------------------|-------------------------|-------------------------|
H|-------------------------|-------------------------|-------------------------|-------------------------|
G|-------------------------|-------------------------|-------------------------|-------------------------|
D|-----9-----------8-------|-----7-----------7-------|-----9-----------8-------|-----7-------7-----------|
A|---------10----------10--|---------10----------10--|---------10----------10--|---------10--------------|
E|-0-----------0-----------|-0-----------0-----------|-0-----------0-----------|-0-----------------------|
. > . . > . . > . . > . . > . . > . . > . >
(2:08 - 2:33) VERSE 3
(2:33 - 3:11) CHORUS + RIFF 3
(3:11 - 3:37)
INTERLUDE:
VoiceE|-------------------------------------------------------------------------------------------------------|
H|-------------------------------------------------------------------------------------------------------|
G|-----4---4---------4-------5------4-------------4----4------2-----2----4------2------------------------|
D|---------------------------------------------------------------------------------------------------5---|
A|-------------------------------------------------------------------------------------------------------|
E| V hrus -tal' - nom sha - re ty vi - dish' e - tot mir. Po- |
| | | | |
Bass G|-----R-----------R-------|-----R-----------R-------|-----R-----------R-------|-----R-----------R-------|
D|-----E-----------E-------|-----E-----------E-------|-----E-----------E-------|-----E-----------E-------|
A|-----S-----------S-------|-----S-----------S-------|-----S-----------S-------|-----S-----------S-------|
E|-3---T---3---3---T---3---|-3---T---3---3---T---3---|-1---T---1---1---T---1---|-1---T---1---1---T---1---|
| | | | |
SynthE|--7----------------------|-(7)---------------------|-5-----------------------|-(5)---------------------|
H|--8----------------------|-(8)---------------------|-6-----------------------|-(6)---------------------|
G|--7----------------------|-(7)---------------------|-5-----------------------|-(5)---------------------|
D|-------------------------|-------------------------|-------------------------|-------------------------|
A|-------------------------|-------------------------|-------------------------|-------------------------|
E|-------------------------|-------------------------|-------------------------|-------------------------|

VoiceE|-------------------------------------------------------------------------------------------------------|
H|-------------------------------------------------------------------------------------------------------|
G|--------------------------2----------------------------------------------------2-----------------------|
D|--5----5------5-----5---------5-----------------5----4------4-----4------5-----------------------------|
A|-------------------------------------------------------------------------------------------------------|
E| ro - ki v nyom ig - ra -yut ne - le - py - mi lyud' -mi. ------------------|
| | | | |
Bass G|-----R-----------R-------|-----R-----------R-------|-----R-----------R-------|-------------------------|
D|-----E-----------E-------|-----E-----------E-------|-----E-----------E-------|-------------------------|
A|-----S-----------S-------|-----S-----------S-------|-5---S---5---5---S---5---|-5-------3---5---3-------|
E|-0---T---0---0---T---0---|-0---T---0---0---T---0---|-----T-----------T-------|-----3h5-------------5---|
| | | | |
SynthE|-------------------------|-------------------------|-------------------------|-------------------------|
H|--8----------------------|-(8)---------------------|-7-----------------------|-(7)---------------------|
G|--9----------------------|-(9)---------------------|-7-----------------------|-(7)---------------------|
D|--9----------------------|-(9)---------------------|-7-----------------------|-(7)---------------------|
A|-------------------------|-------------------------|-------------------------|-------------------------|
E|-------------------------|-------------------------|-------------------------|-------------------------|

VoiceE|-------------------------------------------------------------------------------------------------------|
H|-------------------------------------------------------------------------------------------------------|
G|-----3---3------3----------5------3-------------3----3------2--------2---3-----2-------------------2---|
D|-------------------------------------------------------------------------------------------------------|
A|-------------------------------------------------------------------------------------------------------|
E|- V hrustal' - nom sha - re ty vi - dish' i se - bya, to |
| | | | |
Bass G|-----R-----------R-------|-----R-----------R-------|-----R-----------R-------|-----R-----------R-------|
D|-----E-----------E-------|-----E-----------E-------|-----E-----------E-------|-----E-----------E-------|
A|-----S-----------S-------|-----S-----------S-------|-----S-----------S-------|-----S-----------S-------|
E|-3---T---3---3---T---3---|-3---T---3---3---T---3---|-1---T---1---1---T---1---|-1---T---1---1---T---1---|
| | | | |
SynthE|--6----------------------|-(6)---------------------|-5-----------------------|-(5)---------------------|
H|--8----------------------|-(8)---------------------|-6-----------------------|-(6)---------------------|
G|--7----------------------|-(7)---------------------|-5-----------------------|-(5)---------------------|
D|-------------------------|-------------------------|-------------------------|-------------------------|
A|-------------------------|-------------------------|-------------------------|-------------------------|
E|-------------------------|-------------------------|-------------------------|-------------------------|

VoiceE|-------------------------------------------------------------------------------------------------------|
H|-------------------------------------------------------------------------------------------------------|
G|--------------------------2----------------------------------------------------2-----------4-----------|
D|--5----5-----5--------5-----------5------------5-----4------4------4-----5-----------------------------|
A|-------------------------------------------------------------------------------------------------------|
E| de - mon ty, to an - gel, i me - chet - sya du - sha tvo - -|
| | | | |
Bass G|-----R-----------R-------|-----R-----------R-------|-------------------------|-------------------------|
D|-----E-----------E-------|-----E-----------E-------|-------------------------|-------------------------|
A|-6---S---6---6---S---6---|-6---S---6---6---S---6---|-5---5---5---5---5---5---|-5---5---5---5---5---5---|
E|-----T-----------T-------|-----T-----------T-------|-------------------------|-------------------------|
| | | | |
SynthE|-------------------------|-------------------------|-------------------------|-------------------------|
H|--8----------------------|-(8)---------------------|-7-----------------------|-(7)---------------------|
G|--8----------------------|-(8)---------------------|-7-----------------------|-(7)---------------------|
D|--8----------------------|-(8)---------------------|-7-----------------------|-(7)---------------------|
A|-------------------------|-------------------------|-------------------------|-------------------------|
E|-------------------------|-------------------------|-------------------------|-------------------------|
(3:37 - 4:02)
SOLO: (Lead w/wah pedal)
- ya...........
Lead E|--7~~~~~~~~~~~~~~~~~~-----------------|-------------------7-----7-p5-\3-----|
H|--------------------------------------|------\5-----8-----------------------|
G|--------------------------------------|-------------------------------------|
D|--------------------------------------|-------------------------------------|
A|--------------------------------------|-------------------------------------|
E|--------------------------------------|-------------------------------------|
| | |
Gtr.1E|--------------------------------------|-------------------------------------|
H|--------------------------------------|-------------------------------------|
G|--------------------------------------|-------------------------------------|
D|--2-----------------------2-----------|-2-----------------------2-----------|
A|--2-----------------------2-----------|-2-----------------------2-----------|
E|--0-----0-----0-----0-----0-----0-----|-0-----0-----0-----0-----0-----0-----|

Lead E|--2h5p2h5p2h5p2h5p2h5p2h5p2h5p2h5p2h5p|-2h5p2h5p2h5p2h5p2h5p2---------------|
H|--------------------------------------|-------------------------5-----7-----|
G|------------------------- shake tremolo bar---------------------5-----7-----|
D|--------------------------------------|-------------------------------------|
A|--------------------------------------|-------------------------------------|
E|--------------------------------------|-------------------------------------|
| | |
Gtr.1E|--------------------------------------|-------------------------------------|
H|--------------------------------------|-------------------------------------|
G|--------------------------------------|-------------------------------------|
D|--4-----------------------4-----------|-4-----------------------4-----------|
A|--4-----------------------4-----------|-4-----------------------4-----------|
E|--2-----2-----2-----2-----2-----2-----|-2-----2-----2-----2-----2-----2-----|

Lead E|--------------------------------------|-------------------------------------|
H|--7-bend8~~~~~~~~~~-------5-----7-----|-7-bend8~~~~~~~~~~-------5-----------|
G|--7-bend9~~~~~~~~~~-------5-----7-----|-7-bend9~~~~~~~~~~-------------7-----|
D|--------------------------------------|-------------------------------------|
A|--------------------------------------|-------------------------------------|
E|--------------------------------------|-------------------------------------|
| | |
Gtr.1E|--------------------------------------|-------------------------------------|
H|--------------------------------------|-------------------------------------|
G|--------------------------------------|-------------------------------------|
D|--5-----------------------5-----------|-7-----------------------7-----------|
A|--5-----------------------5-----------|-7-----------------------7-----------|
E|--3-----3-----3-----3-----3-----3-----|-5-----5-----5-----5-----5-----5-----|

Lead E|--------------------------------------|-------------------------------------|
H|--------------------8p7p5-------------|-------8p7p5-------------------------|
G|-7bend9~~~~---7-b9--------7p6p4-------|-7p6p4-------7p6p4bend5--------------|
D|--------------------------------8p7p5-|-------------------------5-----------|
A|--------------------------------------|-------------------------------------|
E|--------------------------------------|-------------------------------------|
| | |
Gtr.1E|--------------------------------------|-------------------------------------|
H|--------------------------------------|-------------------------------------|
G|--------------------------------------|-------------------------------------|
D|--------------------------------------|-------------------------------------|
A|--------------------2-----------------|-2-----------------2-----------------|
E|--0-----3-----5-----------5-----3-----|-------5-----3-----------3-----------|

Lead E|--------------5h7h8p7p5---------------|-------------------------7-----5-----|
H|------0h5h7h8-----------8p7p5p0-5--7--|-8p0---5p0---------8p0---------------|
G|--------------------------------------|-------------------------------------|
D|--------------------------------------|-------------7h9---------------------|
A|--------------------------------------|-------------------------------------|
E|--------------------------------------|-------------------------------------|
| | |
Gtr.1E|--------------------------------------|-------------------------------------|
H|--------------------------------------|-------------------------------------|
G|--------------------------------------|-------------------------------------|
D|--2-----------------------2-----------|-2-----------------------2-----------|
A|--2-----------------------2-----------|-2-----------------------2-----------|
E|--0-----0-----0-----0-----0-----0-----|-0-----0-----0-----0-----0-----0-----|

Lead E|--2h5p2h5p2h5p2h5p2-------------------|-------------------------------------|
H|----------------------2h5p2h5p2h5p2h5-|-------------------------------------|
G|--------------------------------------|-2h4p2h4p2h4p2h4---------------------|
D|--------------------------------------|-------------------2h4p2h4p2h4p2h4---|
A|--------------------------------------|-------------------------------------|
E|--------------------------------------|-------------------------------------|
| | |
Gtr.1E|--------------------------------------|-------------------------------------|
H|--------------------------------------|-------------------------------------|
G|--------------------------------------|-------------------------------------|
D|--4-----------------------4-----------|-4-----------------------4-----------|
A|--4-----------------------4-----------|-4-----------------------4-----------|
E|--2-----2-----2-----2-----2-----2-----|-2-----2-----2-----2-----2-----2-----|

Lead E|--------------------------------------|-------------------------------------|
H|--------------------------------------|-------------------8-----------------|
G|--------------------------------------|-------7-----7h9p7-------9~~~~~~~~~--|
D|--5---4h5p4---------7-----7----/9-----|-7-----------------------------------|
A|--------------7-----------------------|-------------------------------------|
E|--------------------------------------|-------------------------------------|
| | |
Gtr.1E|--------------------------------------|-------------------------------------|
H|--------------------------------------|-------------------------------------|
G|--------------------------------------|-------------------------------------|
D|--5-----------------------5-----------|-7-----------------------7-----------|
A|--5-----------------------5-----------|-7-----------------------7-----------|
E|--3-----3-----3-----3-----3-----3-----|-5-----5-----5-----5-----5-----5-----|

Lead E|--------------------------------------|-------------------12----------------|
H|--------------------12--10h12p10------|-12--10h12p10----------12\\-sl down--|
G|--------9-----12----------------12----|-------------12----------------------|
D|--------------------------------------|-------------------------------------|
A|--------------------------------------|-------------------------------------|
E|--------------------------------------|-------------------------------------|
| | |
Gtr.1E|--------------------------------------|-------------------------------------|
H|--------------------------------------|-------------------------------------|
G|--------------------------------------|-------------------------------------|
D|--------------------------------------|-------------------------------------|
A|--------------------2-----------------|-2-----------------2-----------------|
E|--0-----3-----5-----------5-----3-----|-------5-----3-----------3-----------|
(4:02 - 4:15)
VERSE 4:
O, ty pos - ta - vil krov - yu krest.
Gtr.1E|-------------------------|-------------------------|-------------------------|-------------------------|
H|-------------------------|-------------------------|-------------------------|-------------------------|
G|-------------------------|-------------------------|-------------------------|-------------------------|
D|-7-----------------------|-(7)---------------------|-------------9-----------|-------------9-8---------|
A|-5-----------------------|-(5)---------------------|-------------7-----------|-------------7-6---------|
E|-------------------------|-------------------------|-0---0---0---------------|-0---0---0-----------0---|
| > | | . . . > | . . . > > . |
Gtr.2E|-------------------------|-------------------------|-------------------------|-------------------------|
H|-------------------------|-------------------------|-------------------------|-------------------------|
G|-------------------------|-------------------------|-9-----------11----------|-12----------------------|
D|-------------------------|-------------------------|-------------------------|-------------------------|
A|-------------------------|-------------------------|-------------------------|-------------------------|
E|-------------------------|-------------------------|-------------------------|-------------------------|

Do skoroy vstre - chi na kostreeeeeeeeeeeeeeeee - eeeeeee!
Gtr.1E|-------------------------|-------------------------|-------------------------|-------------------------|
H|-------------------------|-------------------------|-------------------------|-------------------------|
G|-------------------------|-------------------------|-------------------------|-------------------------|
D|-7-----------------------|-(7)---------------------|-5-----------------------|-7-----------------------|
A|-5-----------------------|-(5)---------------------|-3-----------------------|-5-----------------------|
E|-------------------------|-------------------------|-------------------------|-------------------------|
(4:15 - 4:40) CHORUS,
(4:40 - 5:06) CHORUS, along with Gtr.2 from Riff 2.
(5:06 - 5:18) RIFF 3
(5:19 - 5:34) RIFF 1.