.

( )

A                                                   

AA--AP
AE!!!
aa-- cec c aoo "2000 oa o"+"eepaop a"!!!
o-oey acco y!
poy:
e|---4-2-0h2p0---------------|
B|--0----------4-2--0--2-2-4-|
G|-1-------------------------|
D|---------------------------|
A|---------------------0-0-2-|
E|---0-----------------------|
e|-0-----0-2-----0-4-----2-0h2p0-----------0--------0--|
B|---2-------4-------0-----------4-2-0--2--------4-----|
G|-----2-------4-------1-------------------------------|
D|-----------------------------------------------------|
A|-0-------2----------------------------0-----2--------|
E|-----------------0--------------------------------0--|
e|-----4-2-0h2p0-----------|---4-2-0h2p0---------------|
B|---0-----------4-2--2--0-|--0----------4-2--0--2-2-4-|
G|-1-----------------------|-1-------------------------|
D|-------------------------|---------------------------|
A|--------------------0--2-|---------------------0-0-2-|
E|-----0-------------------|---0-----------------------|
e|-0-----0-2-----0-4-----2-0-----------0--------|
B|---2-------4-------0-------4-2-0--2------0--4-|
G|-----2-------4-------1------------------0-----|
D|---------------------------------------2------|
A|-0-------2------------------------0------2----|
E|-----------------0----------------------------|
pop:
e|---------------------------------|
B|---------------------------------|
G|-----0-------0-------0-------0---| (paec 4 paa)
D|-------2-------2---2---2---4---4-|
A|---2-------2-----3-------5-------|
E|-0-------0-----------------------|
EPEOP--pimiaimi
ae-p(oo)epae:Em--epae 6 cpyy, Am,A7-5-y, D,D7,H7,F#7,F#-4-y,
Em Am D Em
y, a aa cea ooe a.
Em Am F# H7
e po, a o oca e co yax.
e e epy aa cepy y ea,
ce poo, a cpo a a oaax.
E7 E7 Am Am
a ce , o e,
C C H7 H7
e ocxo a pa ecoeo ,
a e cea pea op,
o o e o oo.
POP...
Em Am D Em
o pp ce a, ae aa ee,
Em Am F# H7
py pae pay oe, a o o...
Em Am D Em
a coa y e a o poo cee,
Em A7 F# D7
x ece coo ypoe opo-ca .
a ce , o e,
e ocxo a pa ecoeo .
a e cea pea op,
o o e o oo.
G D7
o e c coo, ypypa pea,
G D D
po yec e c coo, aa.
Am7 Am6 C C
oca o o, o o, pec epe pa
Bm Bm C
o p cepx x ca.
ACOUSTIC SOLO:
Gtr.1E|-------------------------------------------------|-------------------------------------------------|
(acu)H|------------------0----0h3-----------5-----------|-7-----------------------------------------------|
G|-------------------------------------------------|-----------------9-------------------------------|
D|-------------------------------------------------|---------------------9---------------------------|
A|-------------------------------------------------|-------------------------9b10r9--7---------------|
E|-------------------------------------------------|-------------------------------------------------|
| |
Gtr.1E|-------------------------------------7-----------|-------------------------------------------------|
H|---------------------7-8-10----------------------|-7-----------------------------------------------|
G|-------------------9-----------------------------|----------------9---7---7h9----------------------|
D|-------------------------------------------------|-------------------------------------------------|
A|-------------------------------------------------|-------------------------------------------------|
E|-------------------------------------------------|-------------------------------------------------|
Gtr.1E|-------------------------------------------------|-------------------------------------------------|
H|-6-(6)/8-\6--------------------------------------|-------------------------------------------------|
G|-------------7-(7)/9-\7--------------------------|-11----------------------------------------------|
D|-- gliss ----------------8-(8)/10\8--------------|-----11------------------------------------------|
A|-------------------------------------8-----------|---------9---9b10r9------------------------------|
E|-------------------------------------------------|-------------------------------------------------|
Gtr.1E|-------------------------------------------------|-------------------7-----7-----------------------|
H|-6-(6)/8-\6--------------------------------------|-------------7-8---------------------------------|
G|-------------7-(7)/9-\7--------------------------|-----8---9---------------------------------------|
D|-- gliss ----------------8-(8)/10\8--------------|-9-----------------------------------------------|
A|-------------------------------------8-----------|-------------------------------------------------|
E|-------------------------------------------------|-------------------------------------------------|
(3:29 - 3:58)
MAIN SOLO:
Lead E|-------------------------------------------------|-------------------------------------------------|
H|-11~~~-------------------10~~~~~~~~--------------|-------------------------------------------------|
G|-------------------------------------12~~~~~-----|-------12~~~~~~~--------------9~~~~~~~-----------|
D|----------------------------------------------12-|-12/14---------------9-9-9/12--------------------|
A|-------------------------------------------------|-------------------------------------------------|
E|-------------------------------------------------|-------------------------------------------------|
Lead E|-------------------------------------------------|-------------------------------------------------|
H|-------------------------------------------------|-------------------------------------------------|
G|-11~~~--12p11------------------------------------|-11----12p11-------------------------------------|
D|-------------12----------12/14-------------------|------------12-----------12-\9-------------------|
A|-------------------------------------------------|-------------------------------------------------|
E|-------------------------------------------------|-------------------------------------------------|
Lead E|-------------------------------------------------|-------------------------------------------------|
H|-11----------11------(11)bend13release11~~~~~~~~-|-11----------11-----(11)bend13release11~~~~~~~~--|
G|---10--10--10------------------------------------|---11--11--11------------------------------------|
D|-----12--12--------------------------------------|-----12--12--------------------------------------|
A|-------------------------------------------------|-------------------------------------------------|
E|-------------------------------------------------|-------------------------------------------------|
Lead E|-13p10--------- T ------------------------------------------------|-11--------------11--12--11~~~~~~~~~~~~~~~~~-----|
H|------13p11h13-15p13p11--------- T -------------------------------|-----12------------------------------------------|
G|-----------------------12p10h12-15p12p10-----------12bend15rel12--|---------11--------------------------------------|
D|----------------------------------------12p10---------------------|-------------13----------------------------------|
A|---------------------------------------------13p10----------------|-------------------------------------------------|
E|------------------------------------------------------------------|-------------------------------------------------|
(3:58 - 4:06)
SOLO OUTRO: (very fast)
T T
Lead E|------------------------T-------10p5h7h8-10p8p7p5-----------T--------------------------|
H|-----------------T------10p5h6h8------------------8p7p5h7h8-10p8p7p5-----------T-------|
G|---------T-------9p4h5h7---------------------------------------------7p5p4h5h7-9p7p5p4-|
D|-T-------9p4h5h7-----------------------------------------------------------------------|
A|-9p4h5h7-------------------------------------------------------------------------------|
E|---------------------------------------------------------------------------------------|
Lead E|--------------------------------------------------------------------|--- 2/4 measure --------------|
H|--------------------------------------------------------------------|------------------------------|
G|-----------T--------------------------------------------------------|------------------------------|
D|-7p5p4h5h7-9p7p5p4-----------T--------T--------T------------T-------|------------------------------|
A|-------------------7----6----9-p6-h7--9-p7-p6--9-p6-p5p3----10-p3---|-2----------------------------|
E|--------------------------------------------------------------------|------------------------------|
POP...

y, a aa cea ooe a.
e po, a o oca e co yax.