.

( )

A                                                   

Gtr I (Eb Ab Db Gb Bb Eb) - 'Untitled'
Gtr II (Eb Ab Db Gb Bb Eb) - 'Untitled'
Gtr III (Eb Ab Db Gb Bb Eb) - 'Untitled'
Intro
Moderate Rock Q=132
4/4
Gtrs I, II
||---------------------------|---------------------------|
||o--------------------------|---------------------------|
||-----4----2--5---2-(2)--4--|----4----2--5---2-(2)--4---|
||-----4----2--5---2-(2)--4--|----4----2--5---2-(2)--4---|
||o-2------------------------|-2-------------------------|
||---------------------------|---------------------------|
|--------------------------|---------------------------||
|--------------------------|--------------------------o||
|----4----2--5---2-(2)--4--|----4----2--0--------------||
|----4----2--5---2-(2)--4--|----4----2--0---4-(4)--0---||
|-2------------------------|-2--------------4-(4)--0--o||
|--------------------------|---------------------------||
Verse
$
Gtr I
PM--------------------------------------------------------------|
||----------------------------------|----------------------------------|
||o---------------------------------|----------------------------------|
||----------------------------------|----------------------------------|
||----------------------------------|----------------------------------|
||o-0-0-0-0-0-0-0-0-0-0-0-0-0-0-0-0-|-3-3-3-3-3-3-3-3-3-3-3-3-3-3-3-3--|
||----------------------------------|----------------------------------|
|
| Gtr II
| PM--------------------------------------------------------------|
||----------------------------------|----------------------------------|
||o---------------------------------|----------------------------------|
||----------------------------------|----------------------------------|
||--2-2-2-2-2-2-2-2-2-2-2-2-2-2-2-2-|-4-4-4-4-4-4-4-4-4-4-4-4-4-4-4-4--|
||o---------------------------------|----------------------------------|
||----------------------------------|----------------------------------|
PM--------------------------------------------------------------|
|---------------------------------|---------------------------------|
|---------------------------------|---------------------------------|
|---------------------------------|---------------------------------|
|---------------------------------|---------------------------------|
|---------------------------------|---------------------------------|
|-0-0-0-0-0-0-0-0-0-0-0-0-0-0-0-0-|-2-2-2-2-2-2-2-2-2-2-2-2-2-2-2-2-|
|
| PM--------------------------------------------------------------|
|---------------------------------|---------------------------------|
|---------------------------------|---------------------------------|
|---------------------------------|---------------------------------|
|-5-5-5-5-5-5-5-5-5-5-5-5-5-5-5-5-|-4-4-4-4-4-4-4-4-4-4-4-4-4-4-4-4-|
|---------------------------------|---------------------------------|
|---------------------------------|---------------------------------|
PM--------------------------------------------------------------|
|---------------------------------|---------------------------------|
|---------------------------------|---------------------------------|
|---------------------------------|---------------------------------|
|---------------------------------|---------------------------------|
|-0-0-0-0-0-0-0-0-0-0-0-0-0-0-0-0-|-3-3-3-3-3-3-3-3-3-3-3-3-3-3-3-3-|
|---------------------------------|---------------------------------|
|
| PM--------------------------------------------------------------|
|---------------------------------|---------------------------------|
|---------------------------------|---------------------------------|
|---------------------------------|---------------------------------|
|-2-2-2-2-2-2-2-2-2-2-2-2-2-2-2-2-|-4-4-4-4-4-4-4-4-4-4-4-4-4-4-4-4-|
|---------------------------------|---------------------------------|
|---------------------------------|---------------------------------|
PM--------------------------------------------------------------|
|---------------------------------|---------------------------------|
|---------------------------------|---------------------------------|
|---------------------------------|---------------------------------|
|---------------------------------|---------------------------------|
|---------------------------------|---------------------------------|
|-0-0-0-0-0-0-0-0-0-0-0-0-0-0-0-0-|-2-2-2-2-2-2-2-2-2-2-2-2-2-2-2-2-|
|
| PM--------------------------------------------------------------|
|---------------------------------|---------------------------------|
|---------------------------------|---------------------------------|
|---------------------------------|---------------------------------|
|-5-5-5-5-5-5-5-5-5-5-5-5-5-5-5-5-|-4-4-4-4-4-4-4-4-4-4-4-4-4-4-0-0-|
|---------------------------------|---------------------------------|
|---------------------------------|---------------------------------|
Pre-Chorus
$$
|-------------------|-------------------|-------------------------|
|-------------------|-------------------|-------------------------|
|-0------(0)--------|-------------------|-4-----------------------|
|-0------(0)--2---0-|-4------(4)--------|-4-----------------------|
|-x------(x)--------|-4------(4)--5---4-|-2-----------------------|
|-3------(3)--------|-2------(2)--------|-------------------------|
|
|-------------------|-------------------|-------------------------|
|-------------------|-------------------|-------------------------|
|-0------(0)--2---0-|-------------------|---------------/(16)\----|
|-0------(0)--------|-2------(2)--4---2-|-4---4-(4)--4--/(16)\----|
|-x------(x)--------|-------------------|-2---2-(2)--2------------|
|-3------(3)--------|-------------------|-------------------------|
|------------------------|---------------|
|------------------------|---------------|
|-2------------/(14)\----|-0----(0)------|
|-2------------/(14)\----|-0----(0)-2--0-|
|-0----------------------|-x----(x)------|
|------------------------|-3----(3)------|
|
|------------------------|---------------|
|------------------------|---------------|
|------------------------|-0----(0)-2--0-|
|-2--2-(2)--2----(2)-----|-0----(0)------|
|-0--0-(0)--0----(0)-----|-x----(x)------|
|------------------------|-3----(3)------|
1. 2.,D.S.,D.S.S.
PM----------------------------|
|-------------------------||---------------------------------|
|------------------------o||---------------------------------|
|-------------------------||---------------------------------|
|-------------------------||---------------------------------|
|-4-4-4-4-4-4-4-4--4-----o||---------------------------------|
|-2-2-2-2-2-2-2-2--2------||-2-2-2-2-3-3-3-3-4-4-4-4-5-5-5-5-|
|
| PM----------------------------|
|-------------------------||---------------------------------|
|------------------------o||---------------------------------|
|-------------------------||---------------------------------|
|-4---------------(4)-----||---------------------------------|
|------------------------o||---------------------------------|
|-------------------------||-2-2-2-2-3-3-3-3-4-4-4-4-5-5-5-5-|
Chorus
Gtrs I, II
|-------------------------|-------------------------|
|-------------------------|-------------------------|
|-4-4-4-4-----4-4-4-4-----|-2-2-2-2-----2-2-2-2-----|
|-4-4-4-4-----4-4-4-4-----|-2-2-2-2-----2-2-2-2-----|
|-2-2-2-2-----2-2-2-2-----|-0-0-0-0-----0-0-0-0-----|
|-------------------------|-------------------------|
|-------------------------|---------------|
|-------------------------|---------------|
|-4-4-4-4-----4-4-4-4-----|----------5----|
|-4-4-4-4-----4-4-4-4-----|-5--------5----|
|-2-2-2-2-----2-2-2-2-----|-5--------3----|
|-------------------------|-3-------------|
PM--| PM--| PM--| PM--|
|-------------------------------------|-------------------------------------|
|-------------------------------------|-------------------------------------|
|-4-4-4-4-(4)-------4-4-4-4-(4)-------|-2-2-2-2-(2)-------2-2-2-2-(2)-------|

|-4-4-4-4-(4)-------4-4-4-4-(4)-------|-2-2-2-2-(2)-------2-2-2-2-(2)-------|
|-2-2-2-2-(2)-2-2-2-2-2-2-2-(2)-2-2-2-|-0-0-0-0-(0)-0-0-0-0-0-0-0-(0)-0-0-0-|
|-------------------------------------|-------------------------------------|
To Dbl. Coda
PM--| PM--|
|-------------------------------------|-------------------|
|-------------------------------------|-------------------|
|-7-7-7-7-(7)-------7-7-7-7-(7)-------|----------3--------|
|-7-7-7-7-(7)-------7-7-7-7-(7)-------|-5--------3--------|
|-5-5-5-5-(5)-5-5-5-5-5-5-5-(5)-5-5-5-|-5--------1--------|
|-------------------------------------|-3-----------------|
Guitar Break
|--------------------------|--------------------------|
|--------------------------|--------------------------|
|----4----2--5---2-(2)--4--|----4----2--5---2-(2)--4--|
|----4----2--5---2-(2)--4--|----4----2--5---2-(2)--4--|
|-2------------------------|-2------------------------|
|--------------------------|--------------------------|
|--------------------------|--------------------------|
|--------------------------|--------------------------|
|----4----2--5---2-(2)--4--|----4----2--0-------------|
|----4----2--5---2-(2)--4--|----4----2--0---4-(4)--0--|
|-2------------------------|-2--------------4-(4)--0--|
|--------------------------|--------------------------|
|--------------------------|--------------------------|
|--------------------------|--------------------------|
|----4----2--5---2-(2)--4--|----4----2--5---2-(2)--4--|
|----4----2--5---2-(2)--4--|----4----2--5---2-(2)--4--|
|-2------------------------|-2------------------------|
|--------------------------|--------------------------|
D.S. al Coda
|--------------------------|--------------------------||
|--------------------------|--------------------------||
|----4----2--5---2-(2)--4--|----4----2--0-------------||
|----4----2--5---2-(2)--4--|----4----2--0---4-(4)--0--||
|-2------------------------|-2--------------4-(4)--0--||
|--------------------------|--------------------------||
&
Gtr II
PM------------|
|----------------------------|--------------------------------|
|----------------------------|--------------------------------|
|-4---4-(4)--4-(4)-4---4--4--|-4---4-(4)--4-------------------|
|-4---4-(4)--4-(4)-4---4--4--|-4---4-(4)--4-------------------|
|-2---2-(2)--2-(2)-2---2--2--|-2---2-(2)--2--2-2-2-2-2-2-2-2--|
|----------------------------|--------------------------------|
Guitar Solo - Part 1
Gtr I
|------------------------------------|
|-3tr5-------------------------------|
|------------------------------------|
|------------------------------------|
|------------------------------------|
|------------------------------------|
|
| Gtr II
| PM-------------------------------|
|------------------------------------|
|------------------------------------|
|------------------------------------|
|------------------------------------|
|------------------------------------|
|-0----0-0-0-0-0-0-0-0-0-0-0-0-0-0-0-|
\2.5
|-------------------------------------------|
|----------------------------------------|
|--------()---------------------------|
|--------------------()---------------|
|-------------------------------------------|
|-------------------------------------------|
|
| PM---| PM|
|-------------------------------------------|
|-------------------------------------------|
|--5-----------------------------5------7---|
|--5-----------------------------5------7---|
|--3----------------------3----3-3--5-5-5---|
|-------------------------------------------|
|------------------------------------------------0--|
|----------0--2--3--0--2--3--5--3--2--0h2h==3-3-----|
|-0--2--3-------------------------------------------|
|---------------------------------------------------|
|---------------------------------------------------|
|---------------------------------------------------|
|
| PM---------------------------------------------|
|---------------------------------------------------|
|---------------------------------------------------|
|---------------------------------------------------|
|---------------------------------------------------|
|---------------------------------------------------|
|-0--0--0--0--0--0--0--0--0--0--0--0--0---0---0--0--|
|-2--2p0-3--3p0-2--2p0--------------------------------------|
|----------------------3--3p0-2--0-3------------------------|
|-------------------------------------2b2.5==(2)r--3p2p0----|
|-----------------------------------------------------------|
|-----------------------------------------------------------|
|-----------------------------------------------------------|
|
|-----------------------------------------------------------|
|-----------------------------------------------------------|
|-7---------------------------4-----------------------------|
|-7---------------------------4-----------------------------|
|-5---------------------------2-----------------------------|
|-----------------------------------------------------------|
|-------------------------------------------------|
|-----5-----5-----5-----5-----5-----5-----5-----5-|
|-7b9---7b9---7b9---7b9---7b9---7b9---7b9---7b9---|
|-------------------------------------------------|
|-------------------------------------------------|
|-------------------------------------------------|
|
| PM--------------------------------------------|
|-------------------------------------------------|
|-------------------------------------------------|
|-------------------------------------------------|
|-------------------------------------------------|
|-------------------------------------------------|
|-0---0-0---0-0---0-0---0-0---0-0---0-0---0-0---0-|
|-------12-------12-------12-------12-------12-------12-------12-------12--|
|-15b17----15b17----15b17----15b17----15b17----15b17----15b17----15b17-----|
|--------------------------------------------------------------------------|
|--------------------------------------------------------------------------|
|--------------------------------------------------------------------------|
|--------------------------------------------------------------------------|
|
| PM---| PM---|
|--------------------------------------------------------------------------|
|--------------------------------------------------------------------------|
|--5--------------------------------------------5-----------------7--------|
|--5--------------------------------------------5-----------------7--------|
|--3-----------------------------------3-----3--3--------5-----5--5--------|
|--------------------------------------------------------------------------|
|-------------------------------------------------------------------------|
|-12--10----------12----10--------12h15-15---12-14--12--15-15---12-14--15-|
|---------12--12-------------12-------------------------------------------|
|-------------------------------------------------------------------------|
|-------------------------------------------------------------------------|
|-------------------------------------------------------------------------|
|
| PM------------------------------------------------------------------|
|-------------------------------------------------------------------------|
|-------------------------------------------------------------------------|
|-------------------------------------------------------------------------|
|-------------------------------------------------------------------------|
|-------------------------------------------------------------------------|
|--0---0---0---0---0--0----0----0-----0----0-----0---0---0----0-----0---0-|
~~~~~
|---------------------------------|
|-15b17r=====(15)S==17---17b19----|
|---------------------------------|
|---------------------------------|
|---------------------------------|
|---------------------------------|
|
|---------------------------------|
|---------------------------------|
|--7----------------------4-------|
|--7----------------------4-------|
|--5----------------------2-------|
|---------------------------------|
Guitar Solo - Part 2
Gtr II
~~~~~~~~~~~~~
|-14-------(14)-14-14-14-14h15p14p12-|-14p12----------12---------------------|
|------------------------------------|-------15-14-15----15-15b17r=======15--|
|------------------------------------|---------------------------------------|
|------------------------------------|---------------------------------------|
|------------------------------------|---------------------------------------|
|------------------------------------|---------------------------------------|
|
| Gtr I
| PM----|
|------------------------------------|---------------------------------------|
|------------------------------------|---------------------------------------|
|------------------------------------|---------------------------------------|
|------------------------------------|---------------------------------------|
|--4---------------------------------|--4-------------------(4)--------------|
|--2----------------------2h=3p=2p=0-|--2-------------------(2)----3--5---3--|
\4.5
~~
|-------------/21S======|=6------------------------|
|-14--------------------|--------------------------|
|-----------------------|--------------------------|
|-----------------------|--------------------------|
|-----------------------|--------------------------|
|-----------------------|--------------------------|
|
| PM----|
|-----------------------|--------------------------|
|-----------------------|--------------------------|
|-----------------------|--------------------------|
|-----------------------|--------------------------|
|--4--------------------|-4----------(4)-----------|
|--2------------2h3p2p0-|-2----------(2)--3--5--3--|
~~~~~~~~~~~~~~
|--------------------------------|------------------------------------|
|-/14--------(14)--12--12--11h12p|=11---------------------------------|
|--------------------------------|-----12--12--11h12p11---------------|
|--------------------------------|------------------------14--14--12--|
|--------------------------------|------------------------------------|
|--------------------------------|------------------------------------|
|
| PM-----| PM-----|
|--------------------------------|------------------------------------|
|--------------------------------|------------------------------------|
|--------------------------------|------------------------------------|
|--------------------------------|------------------------------------|
|---4---------(4)----------------|--4----------------(4)--------------|
|---2---------(2)---3---5---3----|--2----------------(2)---3---5---3--|
|---------------------------------|
|---------------------------------|
|-11------------------------------|
|-----14--14--12--12--11--12--11--|
|---------------------------------|
|---------------------------------|
|
| PM-------------------------|
|---------------------------------|
|---------------------------------|
|---------------------------------|
|---------------------------------|
|---------------------------------|
|--2---3---5---3---2---3---5---3--|
|-------------------------------------------------|
|-------------------------------------------------|
|-------------------------------------------------|
|-11h12h13h14-11h12h13h14-11h12h13h14-11h12h13h14-|
|-------------------------------------------------|
|-------------------------------------------------|
|
|-------------------------------------------------|
|-------------------------------------------------|
|-------------------------------------------------|
|-------------------------------------------------|
|-------------------------------------------------|
|--2h=3h=4h=5--2h=3h=4h=5--2h=3h=4h=5--2h=3h=4h=5-|
Guitar Solo - Part 3
Gtrs I, II
| | | | | | | | | | | | | | | | | | | | | | | | | | | | | | | |
o / / / / / / / / / / / / / / / o / / / / / / / / / / / / / / /
Gtr III
||------------------------------------|---------------------------------|
||o-----------------------------------|---------5h6p5---5---5h6p5---5h6-|
||--7p4---4-7p4---4-7p4---7-(7)-7-6-4-|-0-4-6-7-------7---7-------7-----|
||------4-------4-------4-------------|---------------------------------|
||o-----------------------------------|---------------------------------|
||------------------------------------|---------------------------------|
| | | | | | | | | | | | | | | | | | | | | | | | | |||||||
o / / / / / / / / / / / / / / / o / / / / / / / / ///////
~
|-----------------------------------|--------------------------|
|-----------------------------------|--------------------------|
|-7p4---4-7p4---4-7p4---7-(7)-7-6-4-|---4----------------------|
|-----4-------4-------4-------------|-7---5-7-4h5p4h5p4--------|
|-----------------------------------|--------------------------|
|-----------------------------------|--------------------------|
| | | | | | | | | | | | | | | | | | | | | | | | | | | | | | | |
o / / / / / / / / / / / / / / / o / / / / / / / / / / / / / / /
|-----------------------------------|---------------------------------|
|-----------------------------------|---------5h6p5---5---5h6p5---5h6-|
|-7p4---4-7p4---4-7p4---7-(7)-7-6-4-|-0-4-6-7-------7---7-------7-----|
|-----4-------4-------4-------------|---------------------------------|
|-----------------------------------|---------------------------------|
|-----------------------------------|---------------------------------|
|--------------------------|---------------------------||
|----7----5--8---5-(5)--7--|----7----5----------------o||
|--------------------------|------------7---6-(6)--7---||
|--------------------------|---------------------------||
|--------------------------|--------------------------o||
|--------------------------|---------------------------||
|
| Gtrs I, II
|--------------------------|---------------------------||
|--------------------------|--------------------------o||
|----4----2--5---2-(2)--4--|----4----2--0--------------||
|----4----2--5---2-(2)--4--|----4----2--0---4-(4)--0---||
|-2------------------------|-2--------------4-(4)--0--o||
|--------------------------|---------------------------||
|---14---12--15--12-(12)--14--|--------------|---------|
|-----------------------------|--------------|---------|
|-----------------------------|--------------|---------|
|-----------------------------|--------------|---------|
|-----------------------------|--------------|---------|
|-----------------------------|-14\----------|-(2)\----|
D.S.S. al Dbl. Coda
E5
Gtr I
| |
/ /
Gtr II
|---------|----------------||
|---------|----------------||
|---------|----------------||
|---------|-/(14)\---------||
|---------|-/(14)\---------||
|---------|----------------||
Out-Chorus
&&
Gtrs I, II
|-------------------------|-------------------------|
|-------------------------|-------------------------|
|-4-4-4-4-----4-4-4-4-----|-2-2-2-2-----2-2-2-2-----|
|-4-4-4-4-----4-4-4-4-----|-2-2-2-2-----2-2-2-2-----|
|-2-2-2-2-----2-2-2-2-----|-0-0-0-0-----0-0-0-0-----|
|-------------------------|-------------------------|
|-------------------------|---------------|
|-------------------------|---------------|
|-4-4-4-4-----4-4-4-4-----|----------5----|
|-4-4-4-4-----4-4-4-4-----|-5--------5----|
|-2-2-2-2-----2-2-2-2-----|-5--------3----|
|-------------------------|-3-------------|
PM--| PM--| PM--| PM--|
|-------------------------------------|-------------------------------------|
|-------------------------------------|-------------------------------------|
|-4-4-4-4-(4)-------4-4-4-4-(4)-------|-2-2-2-2-(2)-------2-2-2-2-(2)-------|
|-4-4-4-4-(4)-------4-4-4-4-(4)-------|-2-2-2-2-(2)-------2-2-2-2-(2)-------|
|-2-2-2-2-(2)-2-2-2-2-2-2-2-(2)-2-2-2-|-0-0-0-0-(0)-0-0-0-0-0-0-0-(0)-0-0-0-|
|-------------------------------------|-------------------------------------|
PM--| PM--|
|-------------------------------------|---------------|
|-------------------------------------|---------------|
|-7-7-7-7-(7)-------7-7-7-7-(7)-------|----------3----|
|-7-7-7-7-(7)-------7-7-7-7-(7)-------|-5--------3----|
|-5-5-5-5-(5)-5-5-5-5-5-5-5-(5)-5-5-5-|-5--------1----|
|-------------------------------------|-3-------------|
Outro
|---------------------------------|----------------------------*|
|---------------------------------|----------------------------*|
|---------------------------------|-2-2-2-3-3-3-4--(4)\--------*|
|-------------------2-2-2-3-3-4-4-|----------------------------*|
|-2-2-2-4-4-4-5-5-5---------------|----------------------------*|
|---------------------------------|----------------------------*|

--------------------------------------------------------------------------------
Tablature Legend
----------------
h - hammer-on
p - pull-off
b - bend
pb - pre-bend
r - bend release (if no number after the r, then release immediately)
/\ - slide into or out of (from/to "nowhere")
s - legato slide
S - shift slide
- natural harmonic
[n] - artificial harmonic
n(n) - tapped harmonic
~ - vibrato
tr - trill
T - tap
TP - trem. picking
PM - palm muting
\n/ - tremolo bar dip; n = amount to dip
\n - tremolo bar down
n/ - tremolo bar up
/n\ - tremolo bar inverted dip
= - hold bend; also acts as connecting device for hammers/pulls
- volume swell (louder/softer)
x - on rhythm slash represents muted slash
o - on rhythm slash represents single note slash
Misc Legend
-----------
| - bar
|| - double bar
||o - repeat start
o|| - repeat end
*| - double bar (ending)
: - bar (freetime)
$ - Segno
& - Coda
Tempo markers - = BPM(8/16=s8/s16), where s8 = swing 8ths, s16 = swing 16ths