.

( )

A                                                   

pa c oe
INTRO:
(0:05 - 0:38)
RIFF 1: (play 4 times) ( chords are implied by bass (the 1st and 2nd times);
the 3rd and 4th times bass doubles the guitar )
A5 (E5) (A5) F5 E5
Gtr.1E||---------------------------------|---------------------------------|
H||---------------------------------|---------------------------------|
G||---------------------------------|---------------------------------|
D||---------------------------------|---------------------------------|
A||-----------------7---7-7-7-5-----|-----------------8-------7-------|
E||-5---5-5-5-8-7-5-------------8-7-|-5---5-5-5-8-7-5-----------------|
A5 (E5) (A5) H5 E5
Gtr.1E|----------------------------------|---------------------------------||
H|----------------------------------|---------------------------------||
G|----------------------------------|---------------------------------||
D|----------------------------------|---------------------------------||
A|------------------7---7-7-7-5-----|---------------------------------||
E|--5---5-5-5-8-7-5-------------8-7-|-5---5-5-5-8-7-5-7-------0-------||
(0:38 - 0:42)
RIFF 2:
Gtr.1E|----------------------------------|---------------------------------|
H|----------------------------------|---------------------------------|
G|----------------------------------|---------------------------------|
D|--2-------------------------------|-------------------------------9-|
A|--2-------------------------------|-------------------------------7-|
E|--0---0-0-0---0-0-0---0-0-0---0-0-|-0---0-0-0---0-0-0---0---0-0-0-0-|
> . . . . . . . . . . . . . . . . . . . . . . >
(0:42 - 1:15)
VERSE 1:
VoiceE|--------------------------------------------------------------------|
H|--------------------------------------------------------------------|
G|---4-------------------------------------------------------4-----4--|
D|----------2----2-----------2---0------2------0----------------------|
A|---------------------------------------------------2----------------|
E|Grya - nul hor - i kach - nul - sya hram, smert prish|
| | |
Gtr.1E|----------------------------------|---------------------------------|
H|----------------------------------|---------------------------------|
G|----------------------------------|---------------------------------|
D|-(9)------------------------------|-(9)-----------------------------|
A|-(7)------------------------------|-(7)-----------------------------|
E|-(0)------------------------------|-(0)-----------------------------|

VoiceE|--------------------------------------------------------------------|
H|--------------------------------------------------------------------|
G|--4----------------------------------2------------------------------|
D|--------2------2----------4-----5--------5----4--2---------4-----4--|
A|--------------------------------------------------------------------|
E|-la za mnoy v pyat' cha - so - ov utra. Bol' rva- |
| | |
Gtr.1E|----------------------------------|---------------------------------|
H|----------------------------------|---------------------------------|
G|----------------------------------|---------------------------------|
D|--7-------------------------------|-(7)-----------------------------|
A|--5-------------------------------|-(5)-----------------------------|
E|----------------------------------|---------------------------------|

VoiceE|--------------------------------------------------------------------|
H|--------------------------------------------------------------------|
G|--------------------------------------------------------------------|
D|--5----5----5----------------5-5----5-------4-------2-----------2---|
A|------------------------------------------------------------5-------|
E|-nu - la grud' - srazu stal svo - bo - den ya. |
| | |
Gtr.1E|----------------------------------|---------------------------------|
H|----------------------------------|---------------------------------|
G|----------------------------------|---------------------------------|
D|--5-------------------------------|-5-------4-------2-------4---2---|
A|--3-------------------------------|-2---2-2-2---2-2-2---2-2-2---2---|
E|----------------------------------|-----------------------------0---|
>

Gtr.1E|----------------------------------|---------------------------------|
H|----------------------------------|---------------------------------|
G|----------------------------------|---------------------------------|
D|-(2)------------------------------|-------------------------------9-|
A|-(2)------------------------------|-------------------------------7-|
E|-(0)--0-0-0---0-0-0---0-0-0---0-0-|-0---0-0-0---0-0-0---0---0-0-0-0-|
. . . . . . . . . . . . . . . . . . . . . . >

Litza shlyuh iz milanskih lozh, litza
staryh dev svodit zloby drozh', im by
plot' moyu rasterzat' sred' bela dnya.
(1:15 - 1:27)
BRIDGE:
VoiceE|--------------------------------------------------------------------|
H|--------------------------------------------------------------------|
G|---------------------------2----------------------------------------|
D|--5---------------4--5------------5-----4-------2-------------------|
A|--------------------------------------------------------------------|
E| Ya byl im kak v gor - le kost', ---------|
| | |
Gtr.1E|----------------------------------|---------------------------------|
H|----------------------------------|---------------------------------|
G|----R-----2-----------------------|-----2-------2-------------------|
D|----E-----2-----------------------|-----2-------2-------------------|
A|----S-----0-----------0-0-0-0-0-0-|-0---0-------0-------0-0-0-0-0-0-|
E|--0-T-----------------------------|---------------------------------|

VoiceE|--------------------------------------------------------------------|
H|--------------------------------------------------------------------|
G|---------------------------2----------------------------------------|
D|--5---------------4----5----------5----4--------2-------------------|
A|--------------------------------------------------------------------|
E| Ya vi - del ih vseh nask - voz', ---------|
| | |
Gtr.1E|----------------------------------|---------------------------------|
H|----------------------------------|---------------------------------|
G|----R-----5-----------------------|-----5-------5-------------------|
D|----E-----5-----------------------|-----5-------5-------------------|
A|--0-S-----3-----------3-3-3-3-3-3-|-3---3-------3-------3-3-3-3-3-3-|
E|----T-----------------------------|---------------------------------|

VoiceE|--------------------------------------------------------------------|
H|--------------------------------------------------------------------|
G|----------------------------2---------------------------------------|
D|--5---------------4---5----------5------4-------2-------------------|
A|--------------------------------------------------------------------|
E| Ya zlostyu pla - til za zlost'. ---------|
| | |
Gtr.1E|----------------------------------|---------------------------------|
H|----------------------------------|---------------------------------|
G|----R-----7-----------------------|-----7-------7-------------------|
D|----E-----7-----------------------|-----7-------7-------------------|
A|--3-S-----5-----------5-5-5-5-5-5-|-5---5-------5-------------------|
E|----T-----------------------------|---------------------------------|
(1:27 - 1:43)
CHORUS: (Gtr. either plays the chords above the tab or doubles the vocal line)
VoiceE|--------------------------------------------------------------------|
H|--------------------------------------------------------------------|
G|--4-----------------------------2---4---------------------------2---|
D|-------------------2---4---5------------------------2---4---5-------|
A|--------------------------------------------------------------------|
E| Ey! Ya dlya nih zlodey, zna - yuschiy sek- |
| | |
Bass G|--E5------------------------------|-D5------------------------------|
D|--2---2-2-2---2-2-2---2-2-2---2-2-|---------------------------------|
A|----------------------------------|-5---5-5-5---5-5-5---5-5-5---5-5-|
E|----------------------------------|---------------------------------|

VoiceE|--------------------------------------------------------------------|
H|----------------------3---------------------------------------------|
G|--5---------------5-------5----4----2-------------------2-----------|
D|----------------------------------------------------5-----5-4---5---|
A|--------------------------------------------------------------------|
E| ret nizmennyh strastey nischiih i tza - |
| | |
Bass G|--C5------------------------------|-A5--------------G5------F#5-----|
D|----------------------------------|---------------------------------|
A|--3---3-3-3---3-3-3---3-3-3---3-3-|---------------------------------|
E|----------------------------------|-5---5-5-5---5-5-3---3---2---2---|

VoiceE|--------------------------------------------------------------------|
H|--------------------------------------------------------------------|
G|--------------------------------2---4---------------------------4---|
D|--2---------------2---4----5------------------------2---4---5-------|
A|--------------------------------------------------------------------|
E| rey. Ya byl skri - pachom, moy talant, moy |
| | |
Bass G|--E5------------------------------|-D5------------------------------|
D|--2---2-2-2---2-2-2---2-2-2---2-2-|---------------------------------|
A|----------------------------------|-5---5-5-5---5-5-5---5-5-5---5-5-|
E|----------------------------------|---------------------------------|

VoiceE|--------------------------------------------------------------------|
H|----------------------3---------------------------------------------|
G|--5---------------5-------5----4----2---------------4---4---4---4---|
D|--------------------------------------------------------------------|
A|--------------------------------------------------------------------|
E| greh - zhiznyu i smychkom. Ya igral s og- |
| | |
Bass G|--C5------------------------------|-A5--------------G5------F#5-----|
D|----------------------------------|---------------------------------|
A|--3---3-3-3---3-3-3---3-3-3---3-3-|---------------------------------|
E|----------------------------------|-5---5-5-5---5-5-3---3---2---2---|
(1:43 - 1:47) RIFF 2:
1.---------------------------------------------------------------
VoiceE|--------------------------------------------------------------------|
H|--------------------------------------------------------------------|
G|--4-----------------------------------------------------------------|
D|--------------------------------------------------------------------|
A|--------------------------------------------------------------------|
E| nem! -------------------------------------------------------|
| | |
Gtr.1E|----------------------------------|---------------------------------|
H|----------------------------------|---------------------------------|
G|----------------------------------|---------------------------------|
D|--2-------------------------------|-------------------------------9-|
A|--2-------------------------------|-------------------------------7-|
E|--0---0-0-0---0-0-0---0-0-0---0-0-|-0---0-0-0---0-0-0---0---0-0-0-0-|
> . . . . . . . . . . . . . . . . . . . . . . >
(1:47 - 2:20) VERSE 2
(2:20 - 2:32) BRIDGE
(2:32 - 2:49) CHORUS, finishing with
(2:49 - 3:11)
RIFF 3:
2.----------------------------------------------------------------
nyooooooooooooooooooooooooooooooooooooooooooooooooooooooooooooooom!
Gtr.1E|---------------------------------|---------------------------------|
H|---------------------------------|---------------------------------|
G|---------------------------------|---------------------------------|
D|-9---------------------------7---|-5-------------------------------|
A|-7---------------------------5---|-3---------------------------9---|
E|---------------------------------|-----------------------------7---|
Gtr.1E|---------------------------------|---------------------------------|
H|---------------------------------|---------------------------------|
G|---------------------------------|---------------------------------|
D|-9---------------------------7---|-5-------------------------------|
A|-7---------------------------5---|-3---------------------------9---|
E|---------------------------------|-----------------------------7---|
Gtr.1E|---------------------------------|---------------------------------|
H|---------------------------------|---------------------------------|
G|---------------------------------|---------------------------------|
D|---------------------------------|---------------------------------|
A|-7---------------------------5---|-4---------------------------9---|
E|-5---------------------------3---|-2---------------------------7---|
Gtr.1E|---------------------------------|---------------------------------|
H|---------------------------------|---------------------------------|
G|---------------------------------|---------------------------------|
D|-9---------------------------7---|-5-------------------------------|
A|-7---------------------------5---|-3---------------------------9---|
E|---------------------------------|-----------------------------7---|
Gtr.1E|---------------------------------|---------------------------------|
H|---------------------------------|---------------------------------|
G|---------------------------------|---------------------------------|
D|-9---------------------------7---|-5-------------------------------|
A|-7---------------------------5---|-3---------------------------9---|
E|---------------------------------|-----------------------------7---|
Gtr.1E|---------------------------------|
H|---------------------------------|
G|---------------------------------|
D|---------------------------------|
A|-7---------------------------5---|
E|-5---------------------------3---|
Measure changes at this point. From now on, every measure is 3/4 until otherwise indicated.
(3:12 - 3:18) Transition element between RIFF 3 and RIFF 4:
Gtr.1E|-------------------------|-------------------------|-------------------------|-------------------------|
H|-------------------------|-------------------------|-------------------------|-------------------------|
G|-------------------------|-------------------------|-------------------------|-------------------------|
D|-------------------------|-------------------------|-------------------------|-------------------------|
A|-4-----------------------|-(4)---------------------|-(4)---------------------|-(4)--------switch off---|
E|-2-----------------------|-(2)---------------------|-(2)---------------------|-(2)---------------------|
| | | | |
Bass G|-------------------------|-------------------------|-------------------------|-------------------------|
D|-4-4-4-4-4-4-4-4-4-4-4-4-|-4-4-4-4-4-4-4-4-4-4-4-4-|-4-4-4-4-4-4-4-4-4-4-4-4-|-4-4-4-4-4-4-4-4-4-4-4-4-|
A|-------------------------|-------------------------|-------------------------|-------------------------|
E|-------------------------|-------------------------|-------------------------|-------------------------|
(3:18 - 3:44)
RIFF 4 ( Repeat 2 times):
AcousE||-------------------------|-------------------------|-----------------9-------|-------------------------|
gtr.H||-------------------------|-------------------------|-----7-------9h10---10p9p7-|-9p7p5-7p5p3-5p3p2-3p2p0-|
G||-6-------------6-6-6-----|-6-------------6-6-6-----|-6h7---9p7p6-------------|-------------------------|
D||-7-------------------9p7-|---------------------9p7-|-------------------------|-------------------------|
A||-9-----------------------|-------------------------|-------------------------|-------------------------|
E||-------------------------|-------------------------|-------------------------|-------------------------|
|| | | | |
Bass G||-------------------------|-------------------------|-------------------------|-7-6-4-6-4---4-----------|
D||-4-4-4-4-4-4-4-4-4-4-4-4-|-4-4-4-4-4-4-4-4-4-4-4-4-|-4-4-4-4-4-4-4-4-4-4-4-4-|-----------7---7-6-7-6-4-|
A||-------------------------|-------------------------|-------------------------|-------------------------|
E||-------------------------|-------------------------|-------------------------|-------------------------|

AcousE|--------------------------|-------------------------|-----------------7-------|-------------------------||
gtr.H|--------------------------|-------------------------|-----5-------7h8---8p7p5-|-7p5p3-5p3p1-3p1p0-------||
G|--4-------------4-4-4-----|-4-------------4-4-4-----|-4h5---7p5p4-------------|-------------------5p4p2-||
D|----------------------7p5-|---------------------7p5-|-------------------------|-------------------------||
A|--------------------------|-------------------------|-------------------------|-------------------------||
E|--------------------------|-------------------------|-------------------------|-------------------------||
| | | | ||
Bass G|--------------------------|-------------------------|-------------------------|-5-4-2-4-2---2-----------||
D|--2-2-2-2-2-2-2-2-2-2-2-2-|-2-2-2-2-2-2-2-2-2-2-2-2-|-2-2-2-2-2-2-2-2-2-2-2-2-|-----------5---5-4-5-4-2-||
A|--------------------------|-------------------------|-------------------------|-------------------------||
E|--------------------------|-------------------------|-------------------------|-------------------------||
(3:44 - 4:10)
BASS INTERLUDE (repeat 2 times):
BassG||-------------------------|-------------------------|-------------------------|-------------------------|
D||-------------7-7-7-7-7-7-|-6-6-6-6-6-6-7-6-4-6-4---|-------------7-7-7-7-7-7-|-6-6-6-6-6-6-7-6-4-6-4---|
A||-4-4-4-4-4-4-------------|-----------------------7-|-4-4-4-4-4-4-------------|-----------------------7-|
E||-------------------------|-------------------------|-------------------------|-------------------------|
Bass G|-------------------------|-------------------------|-------------------------|-------------------------||
D|-------------5-5-5-5-5-5-|-4-4-4-4-4-4-5-4-2-4-2---|-------------5-5-5-5-5-5-|-4-4-4-4-4-4-5-4-2-4-2---||
A|-2-2-2-2-2-2-------------|-----------------------5-|-2-2-2-2-2-2-------------|-----------------------5-||
E|-------------------------|-------------------------|-------------------------|-------------------------||
(4:10 - 4:35)
RIFF 5:
Gtr.1E|--------------------------|-------------------------|-------------------------|-------------------------|
H|----R-----------R---------|---R---------------------|---R-----------R---------|---R---------------------|
G|----E-----------E---------|---E---------------------|---E-----------E---------|---E---------------------|
D|----S-----------S---------|---S---------------------|---S-----------S---------|---S---------------------|
A|--7-T-----7-7-7-T-----7-7-|-7-T-----7-7-5---8-8-5-5-|-7-T-----7-7-7-T-----7-7-|-7-T-----7-7-5---8---5---|
E|--5-------5-5-5-------5-5-|-5-------5-5-5-----------|-5-------5-5-5-------5-5-|-5-------5-5-5-----------|
Gtr.1E|--------------------------|-------------------------|-------------------------|-------------------------|
H|----R-----------R---------|---R---------------------|---R-----------R---------|---R---------------------|
G|----E-----------E---------|---E---------------------|---E-----------E---------|---E---------------------|
D|----S-----------S---------|---S---------------------|---S-----------S---------|---S---------------------|
A|--5-T-----5-5-5-T-----5-5-|-5-T-----5-5-3---6-6-3-3-|-5-T-----5-5-5-T-----5-5-|-5-T-----5-5-3---6---3---|
E|--3-------3-3-3-------3-3-|-3-------3-3-3-----------|-3-------3-3-3-------3-3-|-3-------3-3-3-----------|
Gtr.1E|--------------------------|-------------------------|-------------------------|-------------------------|
H|----R-----------R---------|---R---------------------|---R-----------R---------|---R---------------------|
G|----E-----------E---------|---E---------------------|---E-----------E---------|---E---------------------|
D|----S-----------S---------|---S---------------------|---S-----------S---------|---S---------------------|
A|--7-T-----7-7-7-T-----7-7-|-7-T-----7-7-5---8-8-5-5-|-7-T-----7-7-7-T-----7-7-|-7-T-----7-7-5---8---5---|
E|--5-------5-5-5-------5-5-|-5-------5-5-5-----------|-5-------5-5-5-------5-5-|-5-------5-5-5-----------|
Gtr.1E|--------------------------|-------------------------|-------------------------|-------------------------|
H|----R-----------R---------|---R---------------------|---R-----------R---------|-------------------------|
G|----E-----------E---------|---E---------------------|---E-----------E---------|-------------------------|
D|----S-----------S---------|---S---------------------|---S-----------S---------|-------------------------|
A|--5-T-----5-5-5-T-----5-5-|-5-T-----5-5-3---6-6-3-3-|-5-T-----5-5-5-T---------|-------------------------|
E|--3-------3-3-3-------3-3-|-3-------3-3-3-----------|-3-------3-3-3-------3-3-|-3-3-3-3-3-3-0-0-0-0-0-0-|
(4:35 - 6:00)
SOLO:
Gtr.1E|-- sweep -----------10----------------|-13p10-----------10/13-17p13-------------|
H|- picking -------10----10----------10-|------10--------10----------15----------|
G|--------------10----------10----10----|-------10---10---------------14-------|
D|-----------12----------------12-------|----------12-----------------sl.down-|
A|--------12----------------------------|-------------------------------------|
E|--10-13-------------------------------|-------------------------------------|
| | |
Bass G|--------------------------------------|-------------------------------------|
D|--------------------------------------|-------------------------------------|
A|--5--5--5--5--5--5--5--5--5--5--5--5--|-5--5--5--5--5--5--5--5--5--5--5--5--|
E|--------------------------------------|-------------------------------------|

Gtr.1E|--/17~~~~~~~~~~~~~~~~~~~~~~-----------|-------------------------------------|
H|-sl.----------------------------------|-18----17---p15----------------------|
G|--------------------------------------|-------------------17~~~~~~~~--------|
D|--------------------------------------|-------------------------------------|
A|--------------------------------------|-------------------------------------|
E|--------------------------------------|-------------------------------------|
| | |
Bass G|--------------------------------------|-------------------------------------|
D|--------------------------------------|-------------------7--7--7--7--7--7--|
A|--8--8--8--8--8--8--8--8--8--8--8--8--|-8--8--8--8--8--8--------------------|
E|--------------------------------------|-------------------------------------|


Gtr.1E|-/15-15-17-18-15-17----15-------------|-------------------------------------|
H|--------------------18----17-18-15-17-|----15-------------------------------|
G|--------------------------------------|-17----15-17-14-15----14-------------|
D|--------------------------------------|-------------------17----17-15-14----|
A|--------------------------------------|----------------------------------17-|
E|--------------------------------------|-------------------------------------|
| | |
Bass G|--------------------------------------|-------------------------------------|
D|--5--5--5--5--5--5--5--5--5--5--5--5--|-5--5--5--5--5--5--5-----------------|
A|--------------------------------------|-------------------------8-----7-----|
E|--------------------------------------|-------------------------------------|

Gtr.1E|-----------15-17-18----------17-18-20-|----------18-20-22-22b24-------------|
H|--15-17-18----------17-18-20----------|-18-20-22----------------------------|
G|--------------------------------------|-------------------------------------|
D|--------------------------------------|-------------------------------------|
A|--------------------------------------|-------------------------------------|
E|--------------------------------------|-------------------------------------|
| | |
Bass G|--------------------------------------|-------------------------------------|
D|--------------------------------------|-5--5--5--5--5--5--------------------|
A|--8--8--8--8--8--8--8--8--8--8--8--8--|-------------------8--8--8--8--8--8--|
E|--------------------------------------|-------------------------------------|

Gtr.1E|--------------------------------------|-------------------------------------|
H|----------- release ------------------|-------------------------------------|
G|----------- slowly -------------------|----------------------------12-14-15-|
D|--12bend14...release12----------------|-12----------------12-14-15----------|
A|--------------------------------------|-------------------------------------|
E|--------------------------------------|-------------------------------------|
| | |
Bass G|--------------------------------------|-------------------------------------|
D|--------------------------------------|-------------------------------------|
A|--5--5--5--5--5--5--5--5--5--5--5--5--|-5--5--5--5--5--5--5--5--5--5--5--5--|
E|--------------------------------------|-------------------------------------|

Gtr.1E|--------------------------------------|-------------------------------------|
H|--------------------------------------|-------------------------------------|
G|-14-----------------------------------|-15----------------14----------------|
D|--------------------------------------|-------------------------------------|
A|--------------------------------------|-------------------------------------|
E|--------------------------------------|-------------------------------------|
| | |
Bass G|--------------------------------------|-------------------------------------|
D|--------------------------------------|-------------------7--7--7--7--7--7--|
A|--8--8--8--8--8--8--8--8--8--8--8--8--|-8--8--8--8--8--8--------------------|
E|--------------------------------------|-------------------------------------|

Gtr.1E|--------------------------------------|-------------------------------------|
H|--------------------------------------|-------------------------------------|
G|--12----------------------------------|-(12)--------------------------------|
D|--------------------------------------|-------------------------15----14----|
A|--------------------------------------|-------------------------------------|
E|--------------------------------------|-------------------------------------|
| | |
Bass G|--------------------------------------|-------------------------------------|
D|--5--5--5--5--5--5--5--5--5--5--5--5--|-5--5--5--5--5--5--5-----------------|
A|--------------------------------------|-------------------------8-----7-----|
E|--------------------------------------|-------------------------------------|

Gtr.1E|-----------------------------13-17p13-|-------------------------------------|
H|--------------------------13----------|-13----------------------------------|
G|-----------------------14-------------|----14-------------------------------|
D|--15----------------15----------------|-------15---------15b17rel15---14----|
A|--------------------------------------|-------------------------------------|
E|--------------------------------------|-------------------------------------|
| | |
Bass G|--------------------------------------|-------------------------------------|
D|--------------------------------------|-5--5--5--5--5--5--------------------|
A|--8--8--8--8--8--8--8--8--8--8--8--8--|-------------------8--8--8--8--8--8--|
E|--------------------------------------|-------------------------------------|

Gtr.1E|--------------------------------------|-------------------------------------|
H|--------------------------------------|-------------------------------------|
G|--------------------------------------|-------------------------------------|
D|-12b14release12-----------------------|-------------------------------------|
A|--------------------------------------|-------------------------------------|
E|--------------------------------------|-------------------------------------|
| | |
Gtr.2E|--------------------------------------|-------------------------------------|
H|--------------------------------------|------------------15b17rel15---12----|
G|----------9--11-12-11b12rel11---9-----14b16rel14---12-----------------------|
D|-------9------------------------------|-------------------------------------|
A|--------------------------------------|-------------------------------------|
E|--------------------------------------|-------------------------------------|
| | |
Bass G|--------------------------------------|-------------------------------------|
D|--------------------------------------|-------------------------------------|
A|--7--7--7--7--7--7--7--7--7--7--7--7--|-7--7--7--7--7--7--------------------|
E|--------------------------------------|-------------------7--7--7--7--7--7--|

Gtr.2E|-15b17release15--14--12---------------|-------------------------------------|
H|--------------------------15b17--15b17release15-----------------------------|
G|--------------------------------------|-------------------------------------|
D|--------------------------------------|-------------------------------------|
A|--------------------------------------|-------------------------------------|
E|--------------------------------------|-------------------------------------|
| | |
Bass G|--------------------------------------|-------------------------------------|
D|--------------------------------------|-------------------------------------|
A|--7--7--7--7--7--7--7--7--7--7--7--7--|-7--7--7--7--7--7--7--7--7--7--7--7--|
E|--------------------------------------|-------------------------------------|

Gtr.2E|--19p14----19p14----------------------|-------------------------------------|
H|--------15-------15-19p15----19p15----|-------------------------------------|
G|--------------------------16-------16-|-19p14-------------------------------|
D|--------------------------------------|-------17-19p14----------------------|
A|--------------------------------------|----------------17-19p14----14-------|
E|--------------------------------------|-------------------------17----15-14-|
| | |
Bass G|--------------------------------------|-------------------------------------|
D|--------------------------------------|-------------------------------------|
A|--5--5--5--5--5--5--5--5--5--5--5--5--|-------------------5--5--5--5--5--5--|
E|--------------------------------------|-7--7--7--7--7--7--------------------|

Gtr.2E|--------------------------------------|-------------------------------------|
H|--------------------------------------|-------------------------------------|
G|--------------------------------------|-12----------------16----14----12----|
D|--------------------------------------|-------16----14----------------------|
A|--------------------------------------|-------------------------------------|
E|--12----------------------------------|-------------------------------------|
| | |
Bass G|--------------------------------------|-------------------------------------|
D|--------------------------------------|--------------------9-----7----------|
A|--7--7--7--7--7--7--7--7--7--7--7--7--|--10----9-----7----------------10----|
E|--------------------------------------|-------------------------------------|

Gtr.2E|--------------------------------------|-------------------------------------|
H|--------------------------------------|-------------------------------------|
G|-~~~~~~~-----------11-11-11-11-11-|-11----------------11----------------|
D|--A.H.--------------------------------|----12-11----11-12----12-11----11-12-|
A|--------------------------------------|----------14----------------14-------|
E|--------------------------------------|-------------------------------------|
| | |
Bass G|--------------------------------------|-------------------------------------|
D|--------------------------------------|-------------------------------------|
A|--7--7--7--7--7--7--7--7--7--7--7--7--|-7--7--7--7--7--7--------------------|
E|--------------------------------------|-------------------7--7--7--7--7--7--|

Gtr.2E|--------------------------------------|-------------------------------10-12-|
H|--------------------------------------|-------------------------------------|
G|--12---12h14p12-14h15p14-15^r15p14p12-14p12-|-11--------12--14--------------|
D|--------------------------------------|-------------------12----------------|
A|--------------------------------------|-------------------------------------|
E|--------------------------------------|-------------------------------------|
| | |
Bass G|--------------------------------------|-------------------------------------|
D|--------------------------------------|-------------------------------------|
A|--7--7--7--7--7--7--7--7--7--7--7--7--|-7--7--7--7--7--7--7--7--7--7--7--7--|
E|--------------------------------------|-------------------------------------|

Gtr.2E|--14-15-12-14-10-12--9-10--7--9--5--7-|-3--5p3p2-2--0--2----0h2----2-----2--|
H|--------------------------------------|-------------------3-----3-----3-----|
G|--------------------------------------|-------------------------------------|
D|--------------------------------------|-------------------------------------|
A|--------------------------------------|-------------------------------------|
E|--------------------------------------|-------------------------------------|
| | |
Bass G|--------------------------------------|-------------------------------------|
D|--------------------------------------|-------------------------------------|
A|--5--5--5--5--5--5--5--5--5--5--5--5--|-------------------5--5--5--5--5--5--|
E|--------------------------------------|-7--7--7--7--7--7--------------------|

Gtr.2E|--------------------------------------|-2--------3--------2-----------------|
H|-3h5p3h5p3h5p3h5p3h5p3----5--5--3-p0--|----3-p0-----3-p0-----3-p0--5--3--2--|
G|----- trill -------------------------|-------------------------------------|
D|--------------------------------------|-------------------------------------|
A|--------------------------------------|-------------------------------------|
E|--------------------------------------|-------------------------------------|
| | |
Bass G|--------------------------------------|-------------------------------------|
D|--------------------------------------|-4--------5--------4-----------------|
A|--7--7--7--7--7--7--7--7--7--7--7--7--|-4--------5--------4--------7--5--4--|
E|--------------------------------------|-------------------------------------|

Gtr.2E|-----------------------0--1--3--1--0--|-3--------------------0--3--6--5--3--|
H|--------------------------------------|-------------------------------------|
G|--2-----------------------------------|-------------------------------------|
D|--2-----------------------------------|-------------------------------------|
A|--------------------------------------|-------------------------------------|
E|--------------------------------------|-------------------------------------|
| | |
Bass G|--------------------------------------|-------------------------------------|
D|--------------------------------------|-------------------------------------|
A|--------------------------------------|-4--4--4--4--4--4--4--4--4--4--4--4--|
E|--5--5--5--5--5--5--5--5--5--5--5--5--|-------------------------------------|

Gtr.2E|--5-----------------------------------|--6p5p3---3-----------5--3-----------|
H|-----------------------3--3--3--5--6--|-------------6--5--3--------6--5--3--|
G|--------------------------------------|-------------------------------------|
D|--------------------------------------|-------------------------------------|
A|--------------------------------------|-------------------------------------|
E|--------------------------------------|-------------------------------------|
| | |
Bass G|--------------------------------------|-------------------------------------|
D|--------------------------------------|-------------------------------------|
A|--5--5--5--5--5--5--5--5--5--5--5--5--|-8--8--8--8--8--8--8--8--8--8--8--8--|
E|--------------------------------------|-------------------------------------|

Gtr.2E|-----------------------0--1--3--1--0--|-3--------------------0--3--6p5-5p3--|
H|--------------------------------------|-------------------------------------|
G|--2-----------------------------------|-------------------------------------|
D|--2-----------------------------------|-------------------------------------|
A|--------------------------------------|-------------------------------------|
E|--------------------------------------|-------------------------------------|
| | |
Bass G|--------------------------------------|-------------------------------------|
D|--------------------------------------|-------------------------------------|
A|--------------------------------------|-4--4--4--4--4--4--4--4--4--4--4--4--|
E|--5--5--5--5--5--5--5--5--5--5--5--5--|-------------------------------------|

Gtr.2E|--5--------4--------5--------7--------|-10~~~~~~~---------------------------|
H|--------------------------------------|-------------------------------------|
G|--------------------------------------|-------------------------------------|
D|--------------------------------------|-------------------------------------|
A|--------------------------------------|-------------------------------------|
E|--------------------------------------|-------------------------------------|
| | |
Bass G|--7--------6--------7--------9--------|-10----------------------------------|
D|--7--------6--------7--------9--------|-10----------------------------------|
A|--5--------4--------5--------7--------|-8--8--8--8--8--8--8--8--8--8--8--8--|
E|--------------------------------------|-------------------------------------|

Gtr.2E|-----------------------0--1--3--1--0--|-3--------------------0--3--6--5--3--|
H|--------------------------------------|-------------------------------------|
G|--2-----------------------------------|-------------------------------------|
D|--2-----------------------------------|-------------------------------------|
A|--------------------------------------|-------------------------------------|
E|--------------------------------------|-------------------------------------|
| | |
Bass G|--------------------------------------|-------------------------------------|
D|--------------------------------------|-------------------------------------|
A|--------------------------------------|-4--4--4--4--4--4--4--4--4--4--4--4--|
E|--5--5--5--5--5--5--5--5--5--5--5--5--|-------------------------------------|

Gtr.2E|--5-----------------------------------|--6p5p3---3-----------5--3-----------|
H|-----------------------3--3--3--5--6--|-------------6--5--3--------6--5--3--|
G|--------------------------------------|-------------------------------------|
D|--------------------------------------|-------------------------------------|
A|--------------------------------------|-------------------------------------|
E|--------------------------------------|-------------------------------------|
| | |
Bass G|--------------------------------------|-------------------------------------|
D|--------------------------------------|-------------------------------------|
A|--5--5--5--5--5--5--5--5--5--5--5--5--|-8--8--8--8--8--8--8--8--8--8--8--8--|
E|--------------------------------------|-------------------------------------|

Gtr.2E|-----------------------0--1--3--1--0--|-3--------------------0--3--6--5--3--|
H|--------------------------------------|-------------------------------------|
G|--2-----------------------------------|-------------------------------------|
D|--2-----------------------------------|-------------------------------------|
A|--------------------------------------|-------------------------------------|
E|--------------------------------------|-------------------------------------|
| | |
Bass G|--------------------------------------|-------------------------------------|
D|--------------------------------------|-------------------------------------|
A|--------------------------------------|-4--4--4--4--4--4--4--4--4--4--4--4--|
E|--5--5--5--5--5--5--5--5--5--5--5--5--|-------------------------------------|

Gtr.2E|--5--------4--------5--------7--------|-10-------9--------10-------12-------|
H|--------------------------------------|-------------------------------------|
G|--------------------------------------|-------------------------------------|
D|--------------------------------------|-------------------------------------|
A|--------------------------------------|-------------------------------------|
E|--------------------------------------|-------------------------------------|
| | |
Bass G|--------------------------------------|-------------------------------------|
D|--------------------------------------|-------------------------------------|
A|--5--------4--------5--------7--------|-8--------7--------8--------10-------|
E|- > ------ > ------ > ------ > -------| > ------ > ------ > ------ > -------|

Gtr.2E|--------------------------------------|-------------------------------------|
H|--17p14-------------17p14----------17-|-17p14-------------17p14----------17-|
G|--------15-14-15-17-------15-14-15----|-------15-14-15-17-------15-14-15----|
D|--------------------------------------|-------------------------------------|
A|--------------------------------------|-------------------------------------|
E|--------------------------------------|-------------------------------------|
| | |
Bass G|--------------------------------------|-------------------------------------|
D|--------------------------------------|-------------------------------------|
A|--------------------------------------|-4-----------------------------------|
E|--5-----------------------------------|-------------------------------------|

Gtr.2E|--------------------------------------|-------------------------------------|
H|--18p17p15----15-17-18p17p15----15-17-|-18p17p15----15-17-18p17p15----15-17-|
G|-----------18----------------18-------|----------18----------------18-------|
D|--------------------------------------|-------------------------------------|
A|--------------------------------------|-------------------------------------|
E|--------------------------------------|-------------------------------------|
| | |
Bass G|--------------------------------------|-------------------------------------|
D|--------------------------------------|-------------------------------------|
A|--5-----------------------------------|-8-----------------------------------|
E|--------------------------------------|-------------------------------------|

Gtr.2E|--17-------17-------17-------17-------|-15-------15-------15-------15-------|
H|-----17-------17-------17-------17----|----16-------16-------16-------16----|
G|--------18-------18-------18-------18-|-------15-------15-------15-------15-|
D|--------------------------------------|-------------------------------------|
A|--------------------------------------|-------------------------------------|
E|--------------------------------------|-------------------------------------|
| | |
Bass G|--------------------------------------|-------------------------------------|
D|--------------------------------------|-------------------------------------|
A|--------------------------------------|-6-----------------------------------|
E|--5-----------------------------------|-------------------------------------|

Gtr.2E|--14----------------------------------|-------------------------------------|
H|--------------------15----------------|-------------------------------------|
G|--------------------------------------|--14---------------------------------|
D|--------------------------------------|-------------------------------------|
A|--------------------------------------|-------------------------------------|
E|--------------------------------------|-------------------------------------|
| | |
Bass G|--------------------------------------|-------------------------------------|
D|--------------------------------------|-------------------------------------|
A|--5-----------------------------------|--5----------------------------------|
E|--------------------5-----------------|-------------------------------------|
(6:00 - 6:09) Feedback
At this point, return to a normal 4/4 measure.
(6:10 - 6:26)
RIFF 6:
Gtr.E||---------------------------------|---------------------------------|
H||---------------------------------|---------------------------------|
G||---------------------------------|---------------------------------|
D||-7-----------------------7---6---|(6)------------------------------|
A||---------------------------------|---------------------------------|
E||---------------------------------|---------------------------------|
|| | |
BassG||---------------------------------|---------------------------------|
D||-7---7-7-7---7-7-7---7-7-7---6---|-6---6-6-6---6-6-6---6-6-6-6-6-6-|
A||---------------------------------|---------------------------------|
E||---------------------------------|---------------------------------|

Gtr.E|----------------------------------|---------------------------------|
H|----------------------------------|---------------------------------|
G|----------------------------------|---------------------------------|
D|--7-----------------------7---6---|(6)------------------------------|
A|----------------------------------|---------------------------------|
E|----------------------------------|---------------------------------|
| | |
BassG|----------------------------------|---------------------------------|
D|--7---7-7-7---7-7-7---7-7-7---6---|-6---6-6-6---6-6-6---6-6-6-6-6-6-|
A|----------------------------------|---------------------------------|
E|----------------------------------|---------------------------------|

Gtr.E|----------------------------------|---------------------------------|
H|----------------------------------|---------------------------------|
G|----------------------------------|---------------------------------|
D|--4-----------------------4---3---|(3)----------------------3-------|
A|----------------------------------|-----------------------------5---|
E|----------------------------------|---------------------------------|
| | |
BassG|----------------------------------|---------------------------------|
D|--4---4-4-4---4-4-4---4-4-4---3---|-3---3-3-3---3-3-3---3-3-3-------|
A|----------------------------------|-----------------------------5---|
E|----------------------------------|---------------------------------|

Gtr.E|----------------------------------|---------------------------------||
H|----------------------------------|---------------------------------||
G|----------------------------------|---------------------------------||
D|----------------------------------|---------------------------------||
A|-(5)------------------------------|---------------------------------||
E|----------------------------------|---------------------------------||
| | ||
BassG|----------------------------------|---------------------------------||
D|----------------------------------|---------------------------------||
A|--5---5-5-5---5-5-5---5-5-5-5-5-5-|-5---5-5-5---5-5-5---5-5-5-5-5-5-||
E|----------------------------------|---------------------------------||

(6:26 - 6:58) Play RIFF 6 for 2 more times with the words:
Ey, skripach! Ty goryach, kak vsegda stroptiv.
Ty neprav, ty, kak rab, moy igral motiv.
(6:58 - 7:09)
INTERLUDE: ("." - palm mute)
Ty ne
E|------ -------------|
H|---- -------------|
G|---- -------------|
D|----- -------------|
A|--- -5-5-5-5-5-5-|
E|--- -. . . . . .-|
ho - chesh' znat', chto ge - niy - e - to
E|----------------------------------|----------------------------------|
H|----------------------------------|----------------------------------|
G|----------------------------------|----------------------------------|
D|----------------------------------|--5---------------------------7---|
A|--0-------4-------7-------8-------|----------8-------7-----------5---|
E|----------------------------------|----------------------------------|
ya. Ty zhe
E|----------------------------------|----------------------------------|
H|----------------------------------|----------------------------------|
G|----------------------------------|----------------------------------|
D|-(7)--------------------------6---|-(6)------------------------------|
A|-(5)--5-5-5---5-5-5---5-5-5---5---|-(5)--5-5-5---5-5-5---5-5-5-5-5-5-|
E|------.-.-.---.-.-.---.-.-.--->---|------.-.-.---.-.-.---.-.-.-.-.-.-|
moy fut - lyar, ty - platy - e dlya me - nya.
E|----------------------------------|----------------------------------|
H|----------------------------------|----------------------------------|
G|----------------------------------|----------------------------------|
D|----------------------------------|--5-------------------------------|
A|--0-------4-------7-------8-------|----------8-------7---------------|
E|----------------------------------|----------------------------------|

(7:10 - 7:42) In next 4 lines, add the bass from RIFF 6:
Skripach, poy i plach',
E|-----------------|-----------------|-----------------|-----------------|
H|-----------------|-----------------|-----------------|-----------------|
G|-----------------|-----------------|-----------------|-----------------|
D|-7-----------7-6-|-(6)-------------|-7-----------7-6-|-(6)-------------|
A|-----------------|-----------------|-----------------|-----------------|
E|-----------------|-----------------|-----------------|-----------------|
i hvalis' igroy.
E|-----------------|-----------------|-----------------|-----------------|
H|-----------------|-----------------|-----------------|-----------------|
G|-----------------|-----------------|-----------------|-----------------|
D|-4-----------4-3-|-(3)---------3---|-----------------|-----------------|
A|-----------------|---------------5-|-(5)-------------|-(5)-------------|
E|-----------------|-----------------|-----------------|-----------------|
Vsyo ravno myortv ty davno,
E|-----------------|-----------------|-----------------|-----------------|
H|-----------------|-----------------|-----------------|-----------------|
G|-----------------|-----------------|-----------7-----|-----------------|
D|-7-----------7-6-|-(6)-------------|-7-------------7-|-6---------------|
A|-----------------|-----------------|-----------------|-----------------|
E|-----------------|-----------------|-----------------|-----------------|
chto nam rod lyudskoy? Im by
E|-----------------|-----------------|-----------------|-----------------|
H|-----------------|-----------------|-----------------|-----------------|
G|-----------------|-----------------|-----------------|-----------------|
D|-4-----------4-3-|-(3)---------3---|-----------------|-----------------|
A|-----------------|---------------5-|-(5)-------------|-(5)------555555-|
E|-----------------|-----------------|-----------------|----------......-|
(7:42 - 7:53)
pit' da zhrat' v tri gor - la den' i
E|----------------------------------|----------------------------------|
H|----------------------------------|----------------------------------|
G|----------------------------------|----------------------------------|
D|----------------------------------|--5---------------------------7---|
A|--0-------4-------7-------8-------|----------8-------7-----------5---|
E|----------------------------------|----------------------------------|
noch'. Bud' ty
E|----------------------------------|----------------------------------|
H|----------------------------------|----------------------------------|
G|----------------------------------|----------------------------------|
D|-(7)--------------------------6---|-(6)------------------------------|
A|-(5)--5-5-5---5-5-5---5-5-5---5---|-(5)--5-5-5---5-5-5---5-5-5-5-5-5-|
E|------.-.-.---.-.-.---.-.-.--->---|------.-.-.---.-.-.---.-.-.-.-.-.-|
trizh - dy ge - niy, im nel' - zya po -
E|----------------------------------|----------------------------------|
H|----------------------------------|----------------------------------|
G|----------------------------------|----------------------------------|
D|----------------------------------|--5-------------------------------|
A|--0-------4-------7-------8-------|----------8-------7---------------|
E|----------------------------------|----------------------------------|

(7:53 - 8:25) CHORUS 2 ( full-tone lower than the CHORUS; the key is Dm vs Em ):
moch'. No spustis' na dno, pryacha v strunah
Bass G|--D5------------------------------|-C5------------------------------|
D|----------------------------------|---------------------------------|
A|--5---5-5-5---5-5-5---5-5-5---5-5-|-3---3-3-3---3-3-3---3-3-3---3-3-|
E|----------------------------------|---------------------------------|
smeh. sdelay zvuk vinom, sokru - shi moy
Bass G|--Bb5-----------------------------|-G5-------------F5-------E5------|
D|----------------------------------|---------------------------------|
A|----------------------------------|---------------------------------|
E|--6---6-6-6---6-6-6---6-6-6---6-6-|-3---3-3-3---3-3-1---1---0---0---|
tron. Adskim skripa - chom stanesh' bez po -
Bass G|--D5------------------------------|-C5------------------------------|
D|----------------------------------|---------------------------------|
A|--5---5-5-5---5-5-5---5-5-5---5-5-|-3---3-3-3---3-3-3---3-3-3---3-3-|
E|----------------------------------|---------------------------------|
meh. My tebya poymyom, tam igray s og -
Bass G|--Bb5-----------------------------|-G5--------------F5------E5------|
D|----------------------------------|---------------------------------|
A|----------------------------------|---------------------------------|
E|--6---6-6-6---6-6-6---6-6-6---6-6-|-3---3-3-3---3-3-1---1---0---0---|

VoiceE|----------------------------------|---------------------------------|
H|----------------------------------|---------------------------------|
G|----------------------------------|---------------------------------|
D|--7-------------------8---7---5---|-7-------------------8---7---5---|
A|----------------------------------|---------------------------------|
E|nyooooooooooooooooo - o - o - o - ooooooooooooooooooo - o - o - o - |
| | |
Bass G|----------------------------------|---------------------------------|
D|----------------------------------|---------------------------------|
A|--5---5-5-5---5-5-5---5-5-5---5-5-|-3---3-3-3---3-3-3---3-3-3---3-3-|
E|----------------------------------|---------------------------------|

om, tam igray s og -
Bass G|----------------------------------|---------------------------------|
D|----------------------------------|---------------------------------|
A|----------------------------------|---------------------------------|
E|--6---6-6-6---6-6-6---6-6-6---6-6-|-3---3-3-3---3-3-1---1-1-0---0-0-|
nyooooooooooooooooo - o - o - o - oooooooooooooooooooo - o - o - o -
Bass G|----------------------------------|---------------------------------|
D|----------------------------------|---------------------------------|
A|--5---5-5-5---5-5-5---5-5-5---5-5-|-3---3-3-3---3-3-3---3-3-3---3-3-|
E|----------------------------------|---------------------------------|
om! Tam igray s og -
Bass G|----------------------------------|---------------------------------|
D|----------------------------------|---------------------------------|
A|----------------------------------|---------------------------------|
E|--6---6-6-6---6-6-6---6-6-6---6-6-|-3---3-3-3---3-3-1---1-1-0---0-0-|
(8:25 - 8:33)
RIFF 7: (Gtr.2 plays chords indicated)
nyom !
Gtr.1E|- D5 -----------------------------|- C5 ----------------------------|
H|----------------------------------|---------------------------------|
G|----------------------------------|---------------------------------|
D|----------6h7-----6h7-----6h7-----|-6h7-----6h7-----6h7-----6h7-----|
A|--5---7h8-----7h8-----7h8-----7h8-|-----7h8-----7h8-----7h8-----7h8-|
E|----------------------------------|---------------------------------|
Gtr.1E|- Bb5 ----------------------------|- G5 ----------- E5 -------------|
H|----------------------------------|---------------------------------|
G|----------------------------------|---------------------------------|
D|--7h8-----7h8-----7h8-----7h8-----|-8---7---5-----------------------|
A|------7h8-----7h8-----7h8-----7h8-|-------------8---7---8-----------|
E|----------------------------------|-------------------------5---8---|
(8:33 - 8:42) Repeat RIFF 7, while at the last measure Tempo gradually slows down to ~= 40 bpm.
(8:42 - 8:59) FEEDBACK OUTRO.