( )

A                                                   

ye:
Riff A:
1|-------0---------0---------0------------0-------|
2|-------1---------3---------1----------3---3-----|
3|-----2---2-----2---2-----2---2-----4^5------5---|
4|-------------3---------3---------5--------------|
5|---0--------------------------------------------|
6|------------------------------------------------|
Riff B:
1|-------0---------0---------0----------------------|
2|-------1---------3---------1-----------1^0--------|
3|-----2---2-----2---2-----2---2-------0----0-------|
4|-------------3---------3-----------0--------0-----|
5|---0----------------------------------------------|
6|---------------------------------3----------------|
ye pac pa ooepo, a
epe peo aaaec a:
1|-------0---------0---------0----------------------|
2|-------1---------3---------1-----3(?)-------------|
3|-----2---2-----2---2-----2---2---4----------------|
4|-------------3---------3---------5----------------|
5|---0----------------------------------------------|
6|--------------------------------------------------|
pe:
Riff C
1|-------0--------0--------0--------------0-------|
2|-------1--------3--------1------------0---0-----|
3|-----2---2-------------0---0-------1^2------1---|
4|--------------0---0-----------------------------|
5|--0------------------3--------------------------|
6|------------2--------------------0--------------|
Riff D
1|-------0-----------------0-------------0--------|
2|-------1--------3--------1-----------0----0-----|
3|-----2---2------2------0---0-------1--------1---|
4|--------------0---0-----------------------------|
5|--0------------------3--------------------------|
6|------------2--------------------0--------------|
P epeyc, a oe pea eco
ece poco yap o ooca opoo E.
-----------------------------------------------------------
ey ee, o cpaoe eco,
ya a ooe e ea a.
o e ex, ooa eeca,
y c, a yx, ca oa.
a a ce, e cap e oo.
Ho oxoa a , oopo yep o.
o y c, a pay op oo,
Py ycy yc, ea a ce.
pe:
aa, pay p eepo,
aa, o o e poca.
aa, yy, a aeeo,
aa, aa, aa, a yca.
poa o aa, apo opa
Cpe o cey cea pya.
o ax e poa pa,
yae y , e - ea,
Pac a oo oce ca,
ec oea, epx a.
pacy, o, oy opa,
a e poaxc cop a.
pe:
aa, pay p eepo,
aa, o o e poca.
aa, yy, a aeeo,
aa, aa, aa, a yca.
ae paec oe, a oya xa xa
;):
Am D* C E