( )

A                                                   

Transcribed by Volkov Alexey
mailto:statx@mail.ru, http://xal.newmail.ru/

-------------------------------------------------------------------------------
Ooae:
(5) - e pa eaopo, ocoeo ao y ca ap
5/7 - ca epx
7\\5 - ca
5h7 - xaep
7p5 - y
7u(8) - e epx
8d(7) - e
7u(8)d(7) - cooeceo, e epx, a oo
-------------------------------------------------------------------------------

(1)
E||-------------|----------------------------------------------------
B||-------------|----------------------------------------------------
G||*-----------*|----------------------------------------------------
D||*-----------*|----------------------------------------------------
A||-/5-3-2-3-0--|--5-3-2-3-0--5-3-2-3-2--5-3-2-3-5--5-3-2-3-0--------
E||-------------|----------------------------------------------------

---------------------------------------------------------------------
---------------------------------------------------------------------
---------------------------------------------------------------------
-2-2-2-3-2--2-2-2-3-0------------------------------------------------
-------------------------5-3-2-3-5-----------------------------2-----
------------------------------------3-2-1-0------0--4-7--8-7-4-0-----

(2) (2,5)
------------------------------|-------------------------------|------
------------------------------|-------------------------------|------
------------------------------|*-----------------------------*|------
------------------------------|*-----------------------------*|------
-0--2-3--5-3-2-0--2-3--5-3-2--|-------------------------------|------
------------------------------|--0--4-7--8-7-4-0--4-7--8-7-4--|------

---------------------------------------------------------------------
---------------------------------------------------------------------
---------------------------------------------------------------------
---------------------------------------------------------------------
-0--2-3--5-3-2-0--2-3--5-3-2--3--5-7--8-7-5--3--5-7--8-7h8p7-5-------
---------------------------------------------------------------------

(3)
---------------------------------------------------------------------
---------------------------------------------------------------------
---------------------------------------------------------------------
---------------------------------------------------------------------
-------------------------------------------------------------0--2--5-
-3--5-7--8-7-5--3--5-7--8-7-5--3--5-7--8-7-5--0--4-7--8-7-4----------

oop o (1) o (3)

(PreSolo)
/ Gtr1: Gtr2:PM.......................
| ------------------------|----------------------------------
| ------------------------|----------------------------------
| ------------------------|----------------------------------
| ---14-14---14-14---14---|----------------------------------
| -0-15-15-0-15-15-0-15---|-----------5----------------5-----
| ------------------------|-5--5--5-----8-7--5--5--5-----8-7-
| Gtr2: |
| A A E |
|
| (Solo)
| Gtr3 (co cao, pa e ca yaa):
| -----------------------------------------------------------
| ----------------------5---(5)---/---(17)---17---\\---(5)----
| ----------------------5---(5)---/---(17)---17---\\---(5)----
| -----------------------------------------------------------
| -----------------------------------------------------------
\\ -----------------------------------------------------------


Gtr3 - Ca apa (coo - pooee):
--------------------------------------------7-------4----4-----------5------------
-------9---9/(10)\\(9)----------------------------------------------5-5--5/(7)\\(5)-
-5/(9)---9------------9-\\-(7)-/-(9)----9\\(7)---7\\(4)---4---4-4/(5)------5/(7)\\(5)-
----------------------------------------------------------------------------------
----------------------------------------------------------------------------------
----------------------------------------------------------------------------------

------12--12/(13)\\(12)-------12-12---------------------------------------
-(5)/---------------------------------12--12/(13)\\(12)-------------------
--5-/(12)-------------12--/12-----/12------------------12-\\-(10)-/-(12)--
-------------------------------------------------------------------------
-------------------------------------------------------------------------
-------------------------------------------------------------------------

--------------------------------------------------------------------------
---12/(13)-13/(15)-13/(15)-15-15-15-15-\\13-\\12-------9------9-7/(9)-9-\\-\\-
-12---------------------------------------------7/(9)--7/(9)--7/(9)-9-\\-\\-
--------------------------------------------------------------------------
--------------------------------------------------------------------------
--------------------------------------------------------------------------

Gtr2 - P apa (coo - pooee, oopeeo co ca apo):
(PM).................................................................
|---------------------------------|----------------------------------
|---------------------------------|----------------------------------
|*-------------------------------*|----------------------------------
|*-------------------------------*|----------------------------------
|(7)(7)(7)-------(7)(7)(5)--------|-----------5----------------5-----
|-0--0--0---8-7-4-0--0--0---8-7-4-|-5--5--5-----8-7--5--5--5-----8-7-
p coax ec - ac apa o opo pa

(PM).......................................................................
-------------------------------------|-----------------------------------|-
-------------------------------------|-----------------------------------|-
-------------------------------------|*---------------------------------*|-
-------------------------------------|*---------------------------------*|-
-----------8-----------------8-------|-----------3----------------3------|-
-8--8--8-----12-10-8--8--8-----12-10-|-3--3--3-----7-5--3--3--3-----7-5--|-

(PM)...............
--------------------
--------------------
--------------------
-----------------2--
-----------------2--
-0--0--0---8-7-4-0-- aee oop o (1) o (2)

Ee oo coo (e caa :), P pae (2)-(3), (2)-(2,5) coa (2)-(3) ...
---------------------------------------------------------------------
---------------------------------------------------------------------
---------------------------------------------------------------------
-----------7-9/10~~---9h10p9-7-6u(7)d(6)-----------------------------
---------7-------------------------------7u(8)d(7)--5/(7)~~~---------
---5-7-8-------------------------------------------------------------

---------------------------------------------------------------------
---------------------------------------------------------------------
---------------------------------------------------------------------
---------------------------------------------------------------------
---------------------2----7h8p7--------------------------------------
-0--4-7~~-4-7~~-4--1-0----------8-7u(8)d7u(8)d(7)-5~~----------------

-------------------------------------------------------------------
-------------------------------------------------------------------
-------------------------------------------------------------------
-------------------------------------------------------------------
-3--5-7--8-7h8p7-5--3--5-7--8-7h8p7-5------------------------------
--------------------------------------3--5-7--8-7-5--3--5-7--8-7-5-

---------------------------
----------------------8-10-
---------------5-7--9------
-----------5-7------------- a aee ...
-------5p7----------------- a ae o ye o-o co cao
--------------------------- (oepea poa, oopy e opa),

a aoc o e-o oxo a PreSolo, oo c ayo
a oe - co cao
---------------------
---------------------
-/7-\\5-\\4/(5)-\\-\\-2--
---------------------
---------------------
---------------------

Ec y oo-o ec opoc (oeap, cpae ...) - e
-------------------------------------------------------------------------------