( )

A                                                   

 

DDT - ףpo-ee a

chordsby: Vladimir Mikhailov

ec apa D-FlashMan

ea: E D* A - a A pxoc eep aa,
chord: D* 0 3 2 0 0 2

e a aax apaee pe
e,cec, pac a Rock`n`roll
a e a , oo a ce
aap yco, a ec o

p a pxo, oopo aeo
opop, apaa, yae, oo
Cocea ec, o o ec e
xo ec - a cea oo

oe ao cpo pea: 2|--(5)--- - aoe
3|----(5)-

$pe 1
a oo e yy
c a e
pepaa, copo yy
.......

pop:
1|-------------------0---------0--
2|-3/5-5~~-5\3-0---------3-2------
3|---------------1---------------- 2 paa
4|-----------------2---2-----2----
5|--------------------------------
6|--------------------------------

a cecpa, epeyaa oy
Aoc oc ep p
pa y, ca e poy
a cepe yco e py

oae, pc, e oac oo
ea, aa, aoo
oc a cay, epaco po
oe e, ceo o

pe 1

pe 2:
C H G A
OA AOAC ׳PE EE A
OA AOAC ׳PE EE A

eeoa a, apec cpo
oy ococ? a e?
y a o. e. acpa
ae c, a ye ce

y po ce apaee pe
e, cec, pac, a Rock`n`roll
paa, pocae, coe ce
e oe e - ooo yo

1-2 cp. pea 3-4 cpo 5-6 cpo
1|------------------|---7--------5---|---10-----10--9-------
2|---(5)------------|------8---------|-------8---------10--- o 2 paa
3|-----(5)----------|---------7------|---------------------- a cpoy
4|------------------|----------------|----------------------
5|------------------|----------------|----------------------
6|------------------|----------------|----------------------

 

pe
a oo c yy oc a e
A yo a po oy, A cepa poc
capac oa, , aa apa
pee py paa, oe - pa cpa
ea poca, paa o y o
pacye eo eca, p, ya y

OA AOAC ׳PE EE A
OA AOAC ׳PE EE A

Aop oopa: Vladimir Mikhailov 2:5011/78.600
yy opoc, a pa, cpaa y eo___|