( )

A                                                   

 

DDT - oapo

chords by: Roosakov Andrey

Ec oo o , ec c e oepa, ooy oy eoope
pa eo:

Intro:

E|------------------------------------------------------|
H|------------------------------------------------------|
G|------------------------------------------------------| - 4 paa
D|---------3--2---0---------3--2-0----------------------|
A|-----02-----------02--------------------------------|
E|-3---------------3------------------------------------|

E|-------------------------------|
H|-------------------------------|
G|-------------------------------| - ( pe)
D|-2----7--5----7--2----7--5-----|
A|-2----7--5----7--2----7--5-----|
E|-0----5--3----5--0----5--3-----|

( Em A(5) G(3) A(5) Em)

G*
pc ee oapo - op ce a pao pe,
G*
p, oop e yc,
yca a ao,
Em*
eep, a oopo o
ac eo epeca,
G*
Py, o x e oca,
po aepo aoe.

pe@*
Em A(5) G(3)
, pe paoc, o !
A(5) Em A(5) G(3)
o ! Opo, o
A(5) Em
a, opo, o e !
A(5) G(3)
Paoc pe, o e !

pc ee oapo - paccoe ey a,
Cace ao pae,
oxopoy o ,
o ac e pay
Ha ceye oae
pc a ocpecee
oo cxoopee

pe

E|------------------------------------------------------|
H|------------------------------------------------------|
G|------------------------------------------------------| - 4 paa
D|---------3--2---0---------3--2-0----------------------|
A|-----02-----------02--------------------------------|
E|-3---------------3------------------------------------|

E|------------------------------------------------------|
H|------------------------------------------------------|
G|----------3--2---0---------3--2----0------------------|
D|-----02-------------02------------------------------|
A|-3-----------------3----------------------------------|
E|------------------------------------------------------|

E|------------------------------------------------------|
H|------------------------------------------------------|
G|------------------------------------------------------|
D|---------3--2---0---------3--2-0----------------------|
A|-----02-----------02--------------------------------|
E|-3---------------3------------------------------------|

E|------------------------------------------------------|
H|------------------------------------------------------|
G|----------5--4---2---------3--2-0---------------------|
D|-----24-------------02------------------------------|
A|-5-----------------3----------------------------------|
E|------------------------------------------------------|

E|------------------------------------------------------|
H|------------------------------------------------------|
G|------------------------------------------------------|
D|---------3--2---0---------3--2-0----------------------|
A|-----02-----------02--------------------------------|
E|-3---------------3------------------------------------|

E|------------------------------------------------------------------|
H|------------------------------------------------------------------|
G|------------------------------------------------------------------|
D|-2----7--5----7--2----7--5-----------------5------------------5---|
A|-2----7--5----7--2----7--5-----7--5--3---------7--5--3------------|
E|-0----5--3----5--0----5--3----------------------------------------|
^^^^^^^^^^^^^^^^^^^^^^^^^^^^^^^^^^^^
a a cacooe

 

pc ee oapo - epeoae p,
Cpeea opo o,
po pecye caae,
o, acox a pae,
pa, axy o,
Aoc ay a capoc,
ycaoc ycaoc

pe

chord: G* 3 3 0 0 2 3
chord: Em* 3 0 0 2 2 0
chord: G(3) 3 3 4 5 5 3
chord: A(5) 5 5 6 7 7 5