( )

A                                                   

 

- Cooa

Chords By Vladimir Mikhailov ( 2:5011/85.14@FIDOnet )

1|-------0---------0---------0------------0-------|
2|-------1---------3---------1----------3---3-----|
3|-----2---2-----2---2-----2---2-----4^5------4---|
4|-------------3---------3---------5--------------|
5|---0--------------------------------------------|
6|------------------------------------------------|
ey ee, o cpaoe eco,
1|-------0---------0---------0--------------------0-|
2|-------1---------3---------1-----------1^0------3-|
3|-----2---2-----2---2-----2---2-------0----0-----4-|
4|-------------3---------3-----------0--------0---5-|
5|---0----------------------------------------------|
6|---------------------------------3----------------|

ya a ooe e ea a. . oe yea
o e ex, ooa eeca,
y c, a yx, cea oa.

a a ce, e cap e oo.
Ho oxoa a , oopo yep o.
o y c, a pay op oo,
Py ycy yc, ea a ce.
1|-------0-----------------0--------------0-------|
2|-------1--------3--------1------------0---0-----|
3|-----2---2------2------0---0-------1^2------1---|
4|--------------0---0-----------------------------|
5|--0------------------3--------------------------|
6|------------2--------------------0--------------|
aa, pay ep eepo,
aa, o o e poca.
aa, yy, a aeeo,
aa, aa, aa, a yca.

poa o aa, apo opa
Cpee o cey cea pya.
o ax e poa pa,
yae y , e - ea,

Pace a oo oce ca,
ec oea, epx a.
pacy, o, oy opa,
a e poaxc cop a.

aa, pay ep eepo,
aa, o o e poca.
aa, yy, a aeeo,
aa, aa, aa, a yca.

Am D* C E D*(200230)
Cooa...