( )

A                                                   

cyee
apa 1
|---0---0---0---0---0---0---0---0--|
|---0---0---1---1---0---0---0---0--|
|---0---0---2---2---0---0---0---0--|
|-----2-------2-------2-------1----|
|---------0---------------2--------|
|-0---------------0----------------|
Em Am Em H7
apa 2
|----------------------------------|
|-------------------5--------------|
|-----------------4---4------------|
|---------------2------------------|
|---------0-3-0---------2-0-2------|
|-0-2-0-3--------------------------|
cyee paec ecoo pa (ay coo yoo)
ye 1
apa 1

|---0---0---0---0---0---0---0---0--|
|---0---0---1---1---0---0---0---0--|
|---0---0---2---2---0---0---0---0--|
|-----2-------2-------2-------1----|
|---------0---------------2--------|
|-0---------------0----------------|
Em Am Em H7
apa 2
|----------------------------------|
|-----5-------5-------5-------5----|
|---4---4---5---5---4---4---4---4--|
|----------------------------------|
|----------------------------------|
|-0-------5-------0-------2--------|
Em Am Em H7
pe
apa 1

|---0---0---0---0---0---0---0---0--|
|---0---0---1---1---0---0---0---0--|
|---0---0---2---2---0---0---0---0--|
|-----2-------2-------2-------1----|
|---------0---------------2--------|
|-0---------------3----------------|
Em Am Em\\G H7
apa 2
|----------------------------------|
|-----5-------5-------5-------5----|
|---4---4---5---5---4---4---4---4--|
|----------------------------------|
|----------------------------------|
|-0-------5-------3-------2--------|
Em Am Em\\G H7
ye 2
apa 1
|---0---0---0---0---0---0---0---0-|---0---0---0---0---0---0---0---0-|
|---1---1---1---1---1---1---0---0-|---0---0---0---0---0---0---0---0-|
|---2---2---2---2---2---2---0---0-|---0---0---0---0---0---0---0---0-|
|-----2-------2-------2-------1---|-----2-------2-------2-------2---|
|-0-------------------------------|---------------------------------|
|---------3-------2-------2-------|-0-------2-------3-------0-------|
Am Am\\G Am\\H H7 Em Em\\H Em\\G Em
|---0---0---0---0---0---0---0---0-|---0---0---0---0---0---0---------|
|---1---1---1---1---1---1---0---0-|---1---1---1---1---1---1---------|
|---2---2---2---2---2---2---0---0-|---0---0---0---0---2---2---0-----|
|-----2-------2-------2-------1---|-----2-------0-------2-----1-----|
|-0-------------------------------|-3-------2-------0---------2-----|
|---------3-------2-------2-------|---------------------------2-----|
Am Am\\G Am\\H H7 C Am\\C Am H7
apa 2
|---------------------------------|---------------------------------|
|-----5-------5-------5-------5---|-----5-------5-------5-------5---|
|---5---5---5---5---5---5---4---4-|---4---4---4---4---4---4---4---4-|
|---------------------------------|---------------------------------|
|-------------------------2-------|---------------------------------|
|-5-------3-------2---------------|-0-------2-------3-------0-------|
|---------------------------------|---------------------------------|
|-----5-------5-------5-------5---|-----5-------5-------5-----------|
|---5---5---5---5---5---5---4---4-|---5---5---5---5---5---5--0------|
|---------------------------------|--------------------------1------|
|-------------------------2-------|-3-------2-------0--------2------|
|-5-------3-------2---------------|--------------------------2------|
pop
apa 1

|---0---0---0---0---0---0---0---0--|
|---0---0---1---1---0---0---0---0--|
|---0---0---2---2---0---0---0---0--|
|-----2-------2-------2-------1----|
|---------0---------------2--------|
|-0---------------0----------------|
Em Am Em H7
ece c pope e coo:
apa 2
|----------------------------------|
|----------------------------------|
|----------------------------------|
|----------------------------------|
|---10~~~~--9-10-9-7-5-------------|
|-7--------------------8-7-6-7-----|
c ec paec o \"aa\", pee e.
cyee
ye 1
ep ec eepyp - opa a aax,
Cy co ee aa.
y o xa o ae aax
aa y, oo oea.
cyee
ep ec eepyp - yac poxox,
cyx oa ox oape.
a ooco o o, oxoe
apa a ye ee ecee.
pe.
o ep oa ya e ce.
a o oo oy e oe.
ye1
ep ec eepyp - cy o ooc
epx apax, xpe oo
o o papoca cy a opox,
a po a epcx pyx capo.
ep ec eepyp - p, a,
A e oexax p ycoa.
aoc eo oeax caa.
epoao p ec e ycoa.
pe.
ye 1
ep ec eepyp - pacca opox
a x ce pooo
ao yy o oa cpa opox
ec o oye coco o
ye 2
ep ec eepyp - pe caoc yo
o cap xo cpa a pye.
oe oe, coa oe
Pacooee o a ee.
pop
ye 1 (o e opo ap)
ep ec eepyp - o co y paa.
apa y e cax cyy opa.
o eo oe opaee aaa
y , a o e xoy ypa.
ep ec eepyp - ec xo o-o oe
o apce oeax peee ce?
o, cea coco oo
ae ec cax pyx epee.
o pe paec a ye e (o e ye 1)
o ep oa ya e ce
a o oo oy e oe
oo , oo , , , , .
a cepe, ae cepe o.
pe.
o e-e-e-e-e-e-e-e-e-e-e-e-e-e-e-e-e-ep!
epe e a pa, coey ocya ec, oa ec aoe \"Ayca\", o o oa ay.
epc oopaa a 100%, ec cpa ce pao-poco OAEO!!!