( )

A                                                   


DDT

Transcribed by Volkov Alexey
mailto:statx@mail.ru, http://xal.newmail.ru/

-----------------------------------------------------------------------------

Riff 1
(Piano)
e|-0-2-3-0-----0-------3----------0-2-3--2-3-5--7-8-10--11-12-14-------|
B|---------1-3---1-------0--4-5-7--------------------------------------|
G|-----------------2-4-------------------------------------------------|

e|-0-2-3-0-----0-------3----------0-2-3--2-3-5--7-8-10--11-12-14---15--|
B|---------1-3---1-------0--4-5-7--------------------------------------|
G|-----------------2-4-------------------------------------------------|

Riff 2
(Guitar)
e|-----------------------------------------------|
B|-----------------------------------------------|
G|-4-5-4-2-4---4-2-0-2-4---4-2---------4-2-------|
D|-----------------------------5-4-5-------5-4-5-|

Riff 3
(Guitar)
e|-------------------------------------------------------------11-12-13--|
B|---5-7-8-5-----5-------8------------5-7-8-5-----5---12-13-15-----------|
G|--x--------5h7-------------8h9/11\\----------5h7------------------------|
D|-x-----------------7/9---9---------------------------------------------|

e|-----------------------------------------------------------------------|
B|---5-7-8-5-----5-------8------------5-7-8-5-----5---12-13-15-----------|
G|--x--------5h7-------------8h9/11\\----------5h7--------------11-11-11\\-|
D|-x-----------------7/9---9-----------------------------------9--9--9-\\-|

Riff 4
(Piano)
e|-3-3-5-5-3---5-3-2-3---3-3-5-5-3---5--3--2--3--|

Outro
(Piano)
Ee e oopa ... ooo ye, o y oe.

Ec y oo-o ec opoc (oeap, cpae ...) - e
-------------------------------------------------------------------------------