( )

A                                                   

tab1:

1|--------------------------------------------------------

2|-----2-3-2-3-0-----0-2-0-2-0-----0-2-0-2-0----3-3-3-2-0-

3|-----0-0-0-0-0-----0-0-0-0-0-----0-0-0-0-0----0-0-0-0-0-

4|--------------------------------------------------------

5|--2-----------------------------------------------------

6|----------------3-------------0------------0------------

 

tab2: D #F Hm G

1|--------2--------------2------------------0-----------------------

2|------3---3----------2---2------------2-3---3------------3--2--0--

3|----2-------2------3-------3----------0-0-----0--------0----------

4|--0--------------------------------------------------0------------

5|-----------------------------------2------------------------------

6|----------------2-------------0-------------------3---------------

 

tab3: D #F Hm G

1|--------2--------------2------------------0-----------------------

2|------3---3----------2---2------------2-3---3---------0-2-0-2-0---

3|----2-------2------3-------3----------0-0-----0-------0-0-0-0-0---

4|--0---------------------------------------------------------------

5|-----------------------------------2------------------------------

6|----------------2-------------0-------------------3---------------

 

intro: 2 paa tab1

 

* yeax paec tab2, a pee epeyec tab2 tab3

D #F

eo eoe - ee ayca,

Hm G

a opoe a aea,

D #F

o acyxy, a e paoco,

Hm G

a oo, ooa ec.

 

cop aepx, a, e e,

a ce xo, cyxo, a pao.

ex, oy e oe e,

a ce y co epae.

 

o acyxe epo ooe,

ey ap co, e ae.

a a, a opy ce opooe,

ea, o py, a ae.

 

eo eoe, cepe ayca,

Oc, paceae popoeco,

eo - ce, oe, ooeco,

Cep e, o cea oayca,

 

pe:

D #F Hm G

ooe cepe opec a a,

D #F Hm G

oa ooe a coo,

D #F Hm G

oce ce oa,

D #F Hm E E E...

a a pa oy a oo.

 

*paec 2 paa tab1

eo eoe - py ayca,

a opoe a eea,

o oe, oa pacceec,

Ce paca a epa ayca,

 

o cea a py o pee,

o apoc cep ycay.

ce opo pacy cee,

e oeeo, a e ocaeo.

 

y o ooo ea eoo,

pooe oa,

o ac ceo eoeoo,

o o ceo oa,

 

ooe cepe opec a a,

oa ooe a coo,

oce ce oa,

a a pa oy a oo.

 

ooe cepe opec a a,

oa ooe a coo,

oce ce oa,

a a pa oy o o.