( )

A                                                   

D

oa o

Hm C#7/4 C#7

oa aa ce

F#m Dmaj7

poxox o a

Hm C#7/4 C#7

oo e

F#m Dmaj7

a opox coax e

Hm C#7/4

a a

C#7 F#m Dmaj7

pox e

Hm C#7/4

o y

D

pe a py

Hm C#7/4 C#7

p ea e ca

F#m Dmaj7 Hm C#7/4

aae a cepa cep o

C#7 F#m Dmaj7

aec c:

Hm C#7/4

o y copo e

F#m Dmaj7

c e-o oa

Hm

o c-a a -

C#7/4

e o!

 

pop: Dmaj7 F#m D Hm C#7/4

 

e capx opo

Xey e o y

ac o o cey eep po

ooa ca

oxa o,

ece c epoc pc oy

oo epo, epo

ee - ea.

e o!

a opoe ya

a epec

yexa a cace,

epyc poco ce

o ae, ao oo epo

Pec a opa

, a o y

aa cya.

e o!

Outro: F#m Dmaj7 Hm Dmaj7

 

Dmaj7

I

E-----|--*--|-----|-----|--*-- o

B-----|--*--|-----|-----|----- o

G-----|--*--|-----|-----|----- o

D-----|--*--|-----|--*--|----- o

A-----|--*--|-----|-----|--*-- o

E-----|-----|-----|-----|----- x

D

I

E-----|--*--|-----|-----|----- o

B-----|--*--|--*--|-----|----- o

G-----|--*--|-----|-----|----- o

D-----|--*--|-----|--*--|----- o

A-----|--*--|-----|-----|--*-- o

E-----|--*--|-----|-----|----- o

C#7/4

I

E-----|--*--|-----|-----|----- o

B-----|--*--|-----|-----|----- o

G-----|--*--|-----|--*--|----- o

D-----|--*--|--*--|-----|----- o

A-----|--*--|-----|--*--|----- o

E-----|--*--|-----|-----|----- x

C#7

III

E-----|--*--|-----|-----|----- o

B-----|--*--|-----|--*--|----- o

G-----|--*--|-----|-----|----- o

D-----|--*--|-----|--*--|----- o

A-----|--*--|-----|-----|----- o

E-----|--*--|-----|-----|----- o

F#m

I

E-----|--*--|-----|-----|----- o

B-----|--*--|-----|-----|----- o

G-----|--*--|-----|-----|----- o

D-----|--*--|-----|--*--|----- o

A-----|--*--|-----|--*--|----- o

E-----|--*--|-----|-----|----- o

Hm

I

E-----|--*--|-----|-----|----- o

B-----|--*--|--*--|-----|----- o

G-----|--*--|-----|--*--|----- o

D-----|--*--|-----|--*--|----- o

A-----|--*--|-----|-----|----- o

E-----|--*--|-----|-----|----- o

 

O - cpya paec

X - cpya e paec

 

ooe-o y ec co pa c aoacpo a 2-o ay (a eae ey),

a aop C#7/4 oo coce e pa (o o-oey c y opao paeee). ey c aopo popye
(poa ocapac epea). a, aop Dmaj7 oo cooo ae D.

 

pop (solo)- aae a xoe :

 

opooa epeo ap yxox ap, o o

oyoc:

 

sax

-----------------------------------------------------------------------

-----------------------------------------------------------------------

----------\"7\">9---------------11--9--7--9------------------------------

------------------------------------------------------\"9\">11-9-7-------

-------------------------------------------------------------------9---

-----------------------------------------------------------------------

guitar

-------------------------5--------------------------5------------------

-----------------------5--------------------------5--------------------

---------------------7--------------------------7----------------------

-------------------7--------------------------7--------------------4---

------------------(5)------------------------(5)-----------------------

-----------------------------------------------------------------------

 

 

sax

-----------------------------------------------------------------------

-----------------------------------------------------------------------

-----------------------------------------------------------------------

------------------------------2---7--6---------------------------------

--\"7\">9-7-5~----------2-5----------------------------------------------

-----------------------------------------------------------------------

guitar

-----------------------------------------------------------------------

-----------------------------------------------------------------------

-----------------------------------------------------------------------

--\"2\">4-2-0-------------------2---7--6---------------------------------

--------------5-4\\2---2-5----------------------------------------------

-----------------------------------------------------------------------

 

A a o paec ocee pee:

 

sax

-----------------------------------------------------------------------

-----------------------------------------------------------------------

------\"7\">9----------------11-9-7-9------------------------------------

----------------------------------------------------\"9\">11-9-7---------

----------------------------------------------------------------9------

-----------------------------------------------------------------------

guitar

---------------------5---------------------------5---------------------

-------------------5---------------------------5-----------------------

-----------------7---------------------------7-------------------------

---------------7---------------------------7--------------------4------

--------------(5)-------------------------(5)--------------------------

--------------------------------------------------------------------2--

 

sax

-----------------------------------------------------------------------

-----------------------------------------------------------------------

-----------------------------------------------------------------------

-----------------------------------2---7--6----------------------------

--\"7\">9-7-5~----------------2-5----------------------------------------

-----------------------------------------------------------------------

guitar

-----------------------------------------------------------------------

-----------------------------------------------------------------------

-----------------------------------------------------------------------

--\"2\">4-2-0---------------------2---7--6-------------------------------

--------------5-5-5-5\\4-2---2-5----------------------------------------

-----------------------------------------------------------------------

 

 

 

A o p paec epe ec pe ep ye:

 

guitar

----------------------------

---------10-----------------

------11--------------------

---12-----------------------

----------------------------

----------------------------

 

a oe a?

V V V

----------------------------

---------10-----------------

------11-11-----------------

---12-12--------------------

---12-----------------------

----------------------------

 

\"7\" - oa paec oe cpo, e paec e co (coye hammer, pull off, bend ..).

\\ - slide.

V - upstroke (yap cy epx).

(5) - ghost note (ppaa oa), .e. oeo e e co (a oe e e).

 

ap yxox ap pac oo pe , cpoo cooec c aca, .e. ec oa apyp yxox acaa oo
a oo apyp ap, o o pac oopeeo.

 

coye pe ( pull off, hammer, slide, bend ..) o aey ycope, ocoeo ac acaeo yxox.

 

Aop ac c c eo \"ep ec eepyp\", ac oopa. ayaypa oopaa a cyx. ec pyo
pao.

 

P.S. e oaa aco ya cyxo, a o oy o. ooy e ooe cpae pac.

 

P.P.S. o o ep a, oayca,ye e oe cpo.