( )

A                                                   

Riff a

1|-8~--7~--5~----7--------------------------------------

2|------------------------------------------------------

3|------------------------------------------------------

4|------------------------------------------------------

5|------------------------------------------------------

6|------------------------------------------------------

Riff a1

Am G F G

1|-8--7--5--7-------------------------------------------

2|------------------------------------------------------

3|------------------------------------------------------

4|------------------------------------------------------

5|------------------------------------------------------

6|------------------------------------------------------

Riff b

Am F C G

1|-8--10--8--7-----------12-12-13-12--10--8--10-----------

2|--------------10--8--8---------------------------------

3|------------------------------------------------------

4|------------------------------------------------------

5|------------------------------------------------------

6|------------------------------------------------------

Riff c

Am C Am

1|-8------------8---------------------------------------

2|-----10--10------10-----------------------------------

3|------------------------------------------------------

4|------------------------------------------------------

5|------------------------------------------------------

6|------------------------------------------------------

Riff c1

Am

1|------------------------------------------------------

2|-10---------------------------------------------------

3|------------------------------------------------------

4|------------------------------------------------------

5|------------------------------------------------------

6|------------------------------------------------------

cyee:

riff a (4 paa)

riff b (4 paa)

riff c

oce epoo yea riff b 4paa

riff c o pa