( )

A                                                   

Song:eoa coo

E ------|------|------|------|------|------|------|------|------|-----

B ------|------|------|------|------|------|------|------|------|-----

G ------|------|------|------|------|------|------|------|------|-----

D ------|------|------|------|------|------|------|------|------|-----

A ------|------|------|------|------|------|------|------|------|-----

E ------|------|------|------|------|------|------|------|------|-----

E -|------|------|------|------|------|------|------|------|------|---

B -|------|------|------|------|------|------|------|------|------|---

G -|------|------|------|------|------|------|------|------|------|---

D -|------|------|------|------|------|------|------|------|------|---

A -|------|------|------|------|------|------|------|------|------|---

E -|------|------|------|------|------|------|------|------|------|---

E ---|------|-6-5-3---|-6-5-3---|-6-5-6-6-|-6-5-3---|-3-3-3-3-|-3---|-

B ---|------|-------3-|-------3-|---------|-------3-|---------|---3-|-

G ---|------|---------|---------|---------|---------|---------|-----|-

D ---|------|---------|---------|---------|---------|---------|-----|-

A ---|------|---------|---------|---------|---------|---------|-----|-

E ---|------|---------|---------|---------|---------|---------|-----|-

E --|------|-8-8-8-8-|-8-8-6-5-|-3-3-3-5-|-6-6-5-3-|-5-5-5-3-|-2-5-|-3

B 1-|------|---------|---------|---------|---------|---------|-----|--

G --|------|---------|---------|---------|---------|---------|-----|--

D --|------|---------|---------|---------|---------|---------|-----|--

A --|------|---------|---------|---------|---------|---------|-----|--

E --|------|---------|---------|---------|---------|---------|-----|--

E -|------|-8-8-8-8-|-8-8-6-5-|-3-3-3-5-|-6-6-5-3-|-5-5-5-3-|-2-5-|-3-

B -|------|---------|---------|---------|---------|---------|-----|---

G -|------|---------|---------|---------|---------|---------|-----|---

D -|------|---------|---------|---------|---------|---------|-----|---

A -|------|---------|---------|---------|---------|---------|-----|---

E -|------|---------|---------|---------|---------|---------|-----|---

E |------|-6-5-3---|-6-5-3---|-6-5-6-6-|-6-5-3---|-3-3-3-3-|-3---|---|

B |------|-------3-|-------3-|---------|-------3-|---------|---3-|-1-|

G |------|---------|---------|---------|---------|---------|-----|---|

D |------|---------|---------|---------|---------|---------|-----|---|

A |------|---------|---------|---------|---------|---------|-----|---|

E |------|---------|---------|---------|---------|---------|-----|---|

E ------|-8-8-8-8-|-8-8-6-5-|-3-3-3-5-|-6-6-5-3-|-5-5-5-3-|-2-5-|-3-|-

B ------|---------|---------|---------|---------|---------|-----|---|-

G ------|---------|---------|---------|---------|---------|-----|---|-

D ------|---------|---------|---------|---------|---------|-----|---|-

A ------|---------|---------|---------|---------|---------|-----|---|-

E ------|---------|---------|---------|---------|---------|-----|---|-

E -----|-8-8-8-8-|-8-8-6-5-|-3-3-3-5-|-6-6-5-3-|-5-5-5-3-|-2-5-|-3-|--

B -----|---------|---------|---------|---------|---------|-----|---|--

G -----|---------|---------|---------|---------|---------|-----|---|--

D -----|---------|---------|---------|---------|---------|-----|---|--

A -----|---------|---------|---------|---------|---------|-----|---|--

E -----|---------|---------|---------|---------|---------|-----|---|--

E ----|-6-5-3---|-6-5-3---|-6-5-6-6-|-6-5-3---|-3-3-3-3-|-3---|---|---

B ----|-------3-|-------3-|---------|-------3-|---------|---3-|-1-|---

G ----|---------|---------|---------|---------|---------|-----|---|---

D ----|---------|---------|---------|---------|---------|-----|---|---

A ----|---------|---------|---------|---------|---------|-----|---|---

E ----|---------|---------|---------|---------|---------|-----|---|---

E ---|-8-8-8-8-|-8-8-6-5-|-3-3-3-5-|-6-6-5-3-|-5-5-5-3-|-2-5-|-3-|----

B ---|---------|---------|---------|---------|---------|-----|---|----

G ---|---------|---------|---------|---------|---------|-----|---|----

D ---|---------|---------|---------|---------|---------|-----|---|----

A ---|---------|---------|---------|---------|---------|-----|---|----

E ---|---------|---------|---------|---------|---------|-----|---|----

E --|-8-8-8-8-|-8-8-6-5-|-3-3-3-5-|-6-6-5-3-|-5-5-5-3-|-2-5-|-3-|-----

B --|---------|---------|---------|---------|---------|-----|---|-----

G --|---------|---------|---------|---------|---------|-----|---|-----

D --|---------|---------|---------|---------|---------|-----|---|-----

A --|---------|---------|---------|---------|---------|-----|---|-----

E --|---------|---------|---------|---------|---------|-----|---|-----

E -|------|------|------|------|-8-7-5-0-|-8-7-5-0-|-8-7-8-8-|-8-7-5-0

B -|------|------|------|------|---------|---------|---------|--------

G -|------|------|------|------|---------|---------|---------|--------

D -|------|------|------|------|---------|---------|---------|--------

A -|------|------|------|------|---------|---------|---------|--------

E -|------|------|------|------|---------|---------|---------|--------

E -|-5-5-5-5-|-5-0-|---|------|-10-10-10-10-|-10-10-8-7-|-5-5-5-7-|-8-

B -|---------|-----|-3-|------|-------------|-----------|---------|---

G -|---------|-----|---|------|-------------|-----------|---------|---

D -|---------|-----|---|------|-------------|-----------|---------|---

A -|---------|-----|---|------|-------------|-----------|---------|---

E -|---------|-----|---|------|-------------|-----------|---------|---

E 8-7-5-|-7-7-7-5-|-4-7-|-5-|-9-12-|-10-10-10-10-|-10-10-8-7-|-5-5-5-7

B ------|---------|-----|---|------|-------------|-----------|--------

G ------|---------|-----|---|------|-------------|-----------|--------

D ------|---------|-----|---|------|-------------|-----------|--------

A ------|---------|-----|---|------|-------------|-----------|--------

E ------|---------|-----|---|------|-------------|-----------|--------

E -|-8-8-7-5-|-7-7-7-5-|-4-7-|-5-|------|------|------|------|------|-

B -|---------|---------|-----|---|------|------|------|------|------|-

G -|---------|---------|-----|---|------|------|------|------|------|-

D -|---------|---------|-----|---|------|------|------|------|------|-

A -|---------|---------|-----|---|------|------|------|------|------|-

E -|---------|---------|-----|---|------|------|------|------|------|-

E -----|------|------|------|------|------|------|------|------|------

B -----|------|------|------|------|------|------|------|------|------

G -----|------|------|------|------|------|------|------|------|------

D -----|------|------|------|------|------|------|------|------|------

A -----|------|------|------|------|------|------|------|------|------

E -----|------|------|------|------|------|------|------|------|------

E |------|------|------|------|------|------|------|------|------|----

B |------|------|------|------|------|------|------|------|------|----

G |------|------|------|------|------|------|------|------|------|----

D |------|------|------|------|------|------|------|------|------|----

A |------|------|------|------|------|------|------|------|------|----

E |------|------|------|------|------|------|------|------|------|----

E --|------|------|------|------|-10-9-7-2-|-10-9-7-2-|-10-9-10-10-|-1

B --|------|------|------|------|----------|----------|------------|--

G --|------|------|------|------|----------|----------|------------|--

D --|------|------|------|------|----------|----------|------------|--

A --|------|------|------|------|----------|----------|------------|--

E --|------|------|------|------|----------|----------|------------|--

E 0-9-7-2-|-7-7-7-7-|-7-2-|-0-|------|-12-12-12-12-|-12-12-10-9-|-7-7-

B --------|---------|-----|---|------|-------------|------------|-----

G --------|---------|-----|---|------|-------------|------------|-----

D --------|---------|-----|---|------|-------------|------------|-----

A --------|---------|-----|---|------|-------------|------------|-----

E --------|---------|-----|---|------|-------------|------------|-----

E 7-9-|-10-10-9-7-|-9-9-9-7-|-6-9-|-7-|-11-14-|-12-12-12-12-|-12-12-10

B ----|-----------|---------|-----|---|-------|-------------|---------

G ----|-----------|---------|-----|---|-------|-------------|---------

D ----|-----------|---------|-----|---|-------|-------------|---------

A ----|-----------|---------|-----|---|-------|-------------|---------

E ----|-----------|---------|-----|---|-------|-------------|---------

E -9-|-7-7-7-9-|-10-10-9-7-|-9-9-9-7-|-6-9-|-7-|

B ---|---------|-----------|---------|-----|---|

G ---|---------|-----------|---------|-----|---|

D ---|---------|-----------|---------|-----|---|

A ---|---------|-----------|---------|-----|---|

E ---|---------|-----------|---------|-----|---|

Solo was written by a oeo. Nickson_84@mail.ru

ep oopae o co, ec oc opa ae a.