( )

A                                                   

Em

oy a caa cpoc.

Am

caa pae e oea:

Em

"Coo coo coe oep."

H(H7) Em

oo oa e a.

"Coo coo coe oep."

e ayac e a.

cpea pye pao

E|---------------------------------------------------|

B|----------------------------------0-3-5------------|

oo ceo epea.

E|----------------------5\7/5------------------------|

B|----------------------5\5/5------------------------|

Coe eo oe o, eep ooc pea,

o cca a e ya, a-a.

E|---------------------------7-5-3-5-3---------------|

B|---------------------------------------------------|

Coe eo oe o, eep ooc pea,

o cca a e ya.

E|-0-3h5----------------------7-5-3-5-3-3h5p3--------|

B|--------------------------------------------5-3-5--|

o cape e pea aa,

o ypeoc cp oa-a.

oo , oo pepa,

o ce pao e ya, a-a.

oo , oo pepa,

o ce pao e ya.

F#m

e ca oo , e o.

E|--------------------------14-16-16h17-16-14--------|

B|---------------------------------------------------|

Hm

e pa oa poo o.

E|---------------------17-19-19h20-19-17-------------|

B|---------------------------------------------------|

F#m

pa pe coo co ye co opo,

E|-----19--------19^17-------------------------------|

B|---------------------------------------------------|

C# F#m

o opeo pa a e co, a-a.

E|17^16--------------16^14---------------------------|

B|---------------------------------------------------|

pa pe coo co ye co opo,

E|--------------19^17--------------------------------|

B|---------------------------------------------------|

o opeo pa a e co, a-a.

E|-17^16-------------16^14---------------------------|

B|---------------------------------------------------|

Solo:

F#m Hm

E|-----------------------------------------------|

B|----5-7-7-7-5-7-5-7----5-7-7-7-5-7-10-12-------|

G|-\6-----------------\6-------------------------|

D|-----------------------------------------------|

A|-----------------------------------------------|

E|-----------------------------------------------|

F#m

E|-----------------------------------------------|

B|-----10-12-12-12-14-12-10-9-10-10-10-12-10-----|

G|-\11-------------------------------------------|

D|-----------------------------------------------|

A|-----------------------------------------------|

E|-----------------------------------------------|

C# F#m Hm

E|-----------------------------------------------|

B|-----------------------------------------------|

G|-9-7-9-9-9-7-10-10-9-7-----10-12-12-12-14-12---|

G|-----------------------\11---------------------|

D|-----------------------------------------------|

A|-----------------------------------------------|

E|-----------------------------------------------|

F#m C# F#m

E|-----------------------------------------------|

B|-10-9-10-10-10-12-10-9-7-9-9-9-7-10-10-9-7-----|

G|-----------------------------------------------|

D|-----------------------------------------------|

A|-----------------------------------------------|

E|-----------------------------------------------|

G#m

y a epepeco opo.

E|-----------------------------------------------|

B|---------------------9-11-11h12-11-9-----------|

C#m

coo oyx py oxy.

E|-----------------------------------------------|

B|-------------------------11-13-3h14-13-11------|

G#m

caxy c a pyo oope cey,

E|-----------------------------------------------|

B|-9\14----------14^12---------------------------|

D# G#m

yy a co cacy ecy, a-a.

E|-----------------------------------------------|

B|-12^11-------------11^9------------------------|

caxy c a pyo oope cey,

E|-----------------------------------------------|

B|-9\14----------14^12---------------------------|

yy a co cacy ecy, a-a.

oe:

E|-----------------------------------------------|

B|-12^11-------------11^9------------------------|

E|-----------------------------------------------|

B|-9\14---14^12--12^11--11^9---------------------|

E|-----------------------------------------------|

B|-9\14---14^12--12^11--11^9---------------------|

E|-----------------------------------------------|

B|-9\14---14^12--12^11--11^9---------------------|

E|--------------------------------------------------|

B|-9\14---14^12--12^11--11^9----9----9----9----9\0--|

Ec oy e e oo-e Ceop ocyae, a ae ce a o acy

Pea .aa