( )

A                                                   

aco, pa epeca axoy ocope a aop a o ec, o yooy coae y ce capeoe. ooy pe pca coe, .. ca o aoee pa. y ec.

Intro:

F#m(9) E(7) Hm(7) F#m(9) Hm(7)

E----9----9/7-7------7-7------7-7------9--------9-------------------------

B-10---10-------9--------9--------7----------10---10---9--10--9-----------

G-----------------9--------9--------7------11-----------------------------

D-------------------------------------------------------------------------

A-------------------------------------------------------------------------

E-------------------------------------------------------------------------

F#m(9) E(7) Hm(7) F#m(9)

E--2-----------4--5--4--2--0-0------------5-4-2---9-9----5-4-2------------

B-------------------------------------------------------------------------

G-------------------------------------------------------------------------

F#m(9) E(7)

Capea eae o e,

Hm(7) F#m(9)

eep ee o py e.

F#m(9) E(7) Hm(7) F#m(9)

oye p a aax e oca oo-o-o-o...

Cpy ca, opac ep.

e, o ee-e-ep,

py po oya c oo o o...

A E

co o ay oo ce.

Hm F#m

a o a oaec co.

A E A E

oy e py a poy o!

A E

ac oyae cape.

Hm F#m

ye, a acae pacce.

A C# F#m

ce a oce ao po cacy o.

po y ce

ape caa ee "e".

oycc ao a o ce oe ee-o-o-o.

y epee eep oo

Co aya o o

ee cepa, aeo ac oe!

co o ay oo ce.

a o a oaec co.

oy e py a poy o!

ac oyae cape.

ye, a acae pacce.

ce a oce ao po cacy o.

E-5-7-9-9-9p7-5-7--7-9-10-10-10-9-7-5--13/14-14--11/12-12-11^-11^-11^-11^9-

B--------------------------------------------------------------------------

G--------------------------------------------------------------------------

D--------------------------------------------------------------------------

A--------------------------------------------------------------------------

E--------------------------------------------------------------------------

E--------------------------------------------------------------------------

B-*............*--7-9-10-9-7-10-5-5/12-7--7-9-10-10/14-10--7-10-9-7-10/19--

G--------------------------------------------------------------------------

D--------------------------------------------------------------------------

A--------------------------------------------------------------------------

E--------------------------------------------------------------------------

o epa - ce y -

a pepac e a y.

po e aopo yap po cepe e.

py ao ayc o.

C, a oe cepe cy.

a ax ea coc oo e!

co o ay oo ce.

a o a oaec co.

oy e py a poy o!

ac oyae cape.

ye, a acae pacce.

ce a oce ao po cacy o.

oe:

F#m E Hm F#m

E---------------------------7----9-----------11---

B ----12---9-5------12---7---------7/9------------

G-11-------------11-------7-----------------------

P.S: epeop cye epoo yea.

F#m(9) E(7) Hm(7)

E-----------9---------- ----------7---------- ----------7----------

B------10--------10---- -----8---------8----- ------7--------7----

G---11---11---11----11- ---9---9-----9---9-- ----7---7----7---7--

D---------------------- ---------------------- -9-------------------

A-9-------------------- -7-------------------- ---------------------

E---------------------- ---------------------- ---------------------

*....* - eooe eco, e co oopa.

Ec e eoo e pao, yeea poca-poo e pyac, ao CEOPA capac.