( )

A                                                   

Intro:

E|-5-7-8-7-5-8-7-5-7--5-7-8-7-5-8-7-5-0--5-7-8-7-5-8-7-5-7-7-7-7-8-7h8p7-5-

Am E

a oex epe aape,

Am E

co, py ae oe,

Am E Am E

epeepy pec epa c a cee.

Am E

ya o e a o ce,

C G

a, co o e po e,

Am E Am E

ae ceac e e apo aco oe.

Am C G Dm

a ocpe! a ocpe copea oe,

a ocpe! o ea copea oe.

a ocpe! a ocpe, coea a ocpe.

a ocpe! o ea copea oe.

Am C Am G

co epoo ee

Am C E

a pece yy copo ce.

yy ce c epe pepa,

Cep - opa, cep!

E|-5-8-7---8-7-5-7----------------|

a opoeo o,

o o ao e,

a coea opa a ocpe.

a, o ye ooea,

a ooe e o caaa,

ce ce yy ce a poao pece.

a ocpe! a ocpe copea oe,

a ocpe! o ea copea oe.

a ocpe! a ocpe, coea a ocpe.

a ocpe! o ea copea oe.

co epoo ee

a pece yy copo ce.

ce op po pa yy,

Cep - opa, cep!

Solo:

E|-----------------------------------------------------------------------|

B|-/10-12-13---13-13-13-12-10-12---/10-12-13---13-13-13-12-10-12^-12-----|

E|-----------------------------------------------------------------------|

B|-/10-12-13---13-13-13-12-10-12---12-12-12-12-13-12---12h13p12-10-------|

E|-----------------------------------------------------------------------|

B|-/10-12-13---13-13-13-12-10-12---12-14-15--15-15-15-14-12-14^h15p14-12-|

E|-----------------------------------------------------------------------|

B|-/10-12-13---13-13-13-12-10-12---12-12-12-12-13-12---12h13p12-10-------|

a e e e - o a,

o e opac aa,

e e, opoa, a e oy ycy.

a, o copo ee py,

yc cope ay,

Ocp epe o oy co pey py.

a ocpe! a ocpe copea oe,

a ocpe! o ea copea oe.

a ocpe! a ocpe, coea a ocpe.

a ocpe! o ea copea oe.

co epoo ee

a pece yy copo ce.

yy ce c epe pepa,

Cep - opa, cep!

E|------------------------------------------------------------------------|

B|-8-7-5-8-7-5-7----8-7-5-8-7-5-7-8-7----8-7-5-8-7-5-7-7-7-8-7-5-5--------|

E|------------------------------------------------------------------------|

B|-8-7-5-8-7-5-7---8-7-5-8-7-5-7-8-7--8-7-5-8-7-5-7-7-7-8-7-5-5---7-8-7-8-|

E|------------------------------------------------------------------------|

B|-7-5--------------------------------------------------------------------|

EC AE O, A EO O. PA XO - .