( )

A                                                   

INTRO:

E|---------------------------------------------|

B|---------------------------------------------|

G|---------------------------------------------|

pm pmpmpm

D|-7--7-7-7*--3--4-3-4-7-----------------------|

A|-7--7-7-7---3--4-3-4-7-----------------------|

E|-5--5-5-5---5--2-5-2-5-----------------------|

*- oop ecoo pa (oo oe ca ooe o-o,ocopaec

opee o-o ca - ocya ec)

VERSE:

E|---------------------------------------------|

B|---------------------------------------------|

pm

G|-----------7*----5---------------------------|

pm pm pm

D|-2*-5*-454-7--2--5-7-------------------------|

A|-2--5--454-5--2--3-7-------------------------|

E|-0--3--232----0----5-------------------------|

*- oop ecoo pa OOO EEO (oo oe ca ooe o-o,ocopaec

opee o-o ca - ocya ec)

CHORUS:

E|--------------------------------------------------|

B|--------------------------------------------------|

G|------4-5-5-4-----5------------4-5-5--5-7-5-4-----|(OOP 2 PAA)

D|-7-7--4-5-5-4-5-5-5-7-7---7-7--4-5-5--5-7-5-4-5-5-|

A|-7-7--2-3-3-2-5-5-3-7-7---7-7--2-3-3--3-5-3-2-5-5-|

E|-5-5----------3-3---5-5---5-5-----------------3-3-|

y o poe c... ec o e a... e... ca e coo, a coo e xao c :)))

AA XO!

-----------------------------------------------------------------------------

o o o pepac oop caaa oae o o pyoo e,

a o poy acoeo aopa aoo oopa poc e.

---

Cooo a (ey paea Ceop aa)