( )

A                                                   

opo

Verse

Chorus

Verse

Chorus x2

Bridge

2nd Verse

Chorus x2

Verse

G|---------------------------------------------------|

D|---------------------------------------------------|

A|-------3-3---3-3-----0-0---0-0-------------3-3-5-5-|

E|-3---------------0-0-----------0-0-1-1-------------|

G|---------------------------------------------------------|

D|---------------------------------------------------------|

A|-----0-0-----3-3---3-3-----0-0---0-0---------------------|

E|-3-------3-3-----------0-0-----------0-0-1-1-----3-3-5-5-|

Chorus

G|----------------------------------------------------------------------|

D|----------------------------------------------------------------------|

A|---------00002222-3333333333332222-0000000000002233-6666666655555555--|

E|-33333333-------------------------------------------------------------|

Bridge

G|--------------------------------------------------------------

D|--------------------------------------------------------------

A|---------------3-3-3---7---------------------3-7-7-7---3-7----

E|-3-3-3-2-1-----------5-------3-3-3-2-1-----5---------5--------

G|------------------------------------------------------------------------

D|------------------------------------------------------------------------

A|-------------------3-3-3---7-7777777--------------------3-7-7-7---3-7---

E|-3-3-3-2-1-1111111-------5-----------3-3-3-2-1-11111--5---------5-------

2nd Verse

epy ooy yea ac e cya.

G|----------------------------------------------|

D|----------------------------------------------|

A|----5-------3--33--3-2-0--7-00--3-6--5--------|

E|-3----33--3-----------------------------10/3--|