( )

A                                                   

a-Cyepea

solo:

e|-----------------------|

b|-----------0-----------|

g|---------------0-------|-paec 5pa c5 aae e

d|-------5---------------|

a|--3--------------------|

E|-----------------------|

oo:

e|-----------------------|----------0---------|----------0---------|

b|-----------0-----------|-------3-----3------|-------3-----3------|

g|--------5------5-------|----0---------------|----0---------------|

d|---3-------------------|--------------------|--------------------|

a|-----------------------|--------------------|--------------------|

E|-----------------------|--------------------|--------------------|

c F G

oa epecay coepeo,

ce cay: a e o xopo, aa aa,

a o e aea, e opaa a,

O a popoa oxo, ao e eypaa.

oa epecay y o oype,

ce cay: ape xo ya,

o, e, oe e o,

opye ae eya.

pe:

E5 C5 G5

oa epecay

B5 E5

ooea ya

o a po oecec

Oe coo,

oa oee aoe

aa cyep ea

ce o ac opee

Pa acea, a, a, a.

Pa acea.

oa epecay y,

apo oe, o ee,

ocay ya, oa

ceapoo eoaco pae.

P.S.

oa epe G aa ee b a 3 ay

B5 a ceo ay

Eadgbe

B5:79xxxx

opo ye pa a C5 F5 G5

pe oayca o o oope...