( )

A                                                   

a - ec po o

oop: Teddy(great-theodor@mail.ru)

cyee:

----------------------------|

----------------------------|

----------------------------|

----------------------------|

----------------------------|

--8-8-8-7-8----5-5-5-4-3----|

Verse: Chorus:

------------------------| -------------------------|

------------------------| -------------------------|

------------------------| -------------------------|

------10-------7--------|x4 --10---12-10----7---9-7--|

------10-------7--------| --10---12-10----7---9-7--|

------8--------5--------| --8----10-8-----5---7-5--|

acpy - eep .. Coce

acpy o e coy o ep

c pao e e eep.

oyc pao o oo

c pao e e ao.

cay ee po: "o aa - ya!"

c pao e e a.

O oe poc oea ce

c pao e e coce.

Coce...

Coce...

yy o, pc y

c pao e e y

a o e poe ye ecpe

c pao e e e

ayy ce , ae poe

c pao e e e

yy xo pao ae

c pao e e ae.

yy e ec coce po o

c pao e e o.

o...

o...