( )

A                                                   

opo

Verse

Chorus

Verse

Chorus

Verse

Chorus x2

Verse

G|------------------------------------------------------------------------------------|

D|------------------------------------------------------------------------------------|

A|-5---------0--------2-----------------------5---------0---------2-------------------|

E|------------------------------3--------5-3--------------------------------3---------|

Chorus

G|--------------------------------------------------------------------------------------------|

D|------------3-------------------------3-----------------------------------------------------|

A|-5-----------------2--------5----------------2--------5---------0--------2--------2-0-3-----|

E|--------------------------------------------------------------------------------------------|