АККОРДЫ ДЛЯ ГИТАРЫ

главная аккорды и песни песни

Песни под гитару

Самоучитель игры на гитаре (для новичков)

Аккорды к песням

A  Б  В  Г  Д  Е  Ж  З  И  К  Л  М  Н  О  П  Р  С  Т  У  Ф  Х  Ч  Ш  Э  Ю  Я 

Наив

Don\'t wanna be sedated!

D G

Feeling lonely and upset,

A D

I\'m locked in the frames of the reality,

G

Being pressed by my guilty past,

A D

I try to prevent my insanity.

And I don\'t know what it means -

I\'ve been so much frustrated!

But still I wanna feel my life\'s complete,

Don\'t wanna be sedated!

G A D

Don\'t wanna be sedated!

Don\'t wanna be sedated!

Don\'t wanna be sedated!

Don\'t wanna be sedated!

Или мoжнo игpaть тaк:

Кyплeт:

E----------------|

B----------------|

G--7-------------|

D--7---5---7-----|

A--5---5---7---- |

E------3---5-----|

Пpипeв: вpyбaeшь пpимoчкy и игpaй нaздopoвьe

E----------------|

B----------------|

G----------7-----|

D--5---7---7-----|

A--5---7---5 ----|

E--3---5---------|