( )

A                                                   

Intro

C7M

E||----------------------|----------------------|----------------------|

B||-------1-------1------|-------1-------1------|-------1-------1------|

G||----------4-----------|----------4-----------|----------4-----------|

D||----------------------|----------------------|----------------------|

A||--3-------------------|--3-------------------|--3-------------------|

E||----------------------|----------------------|----------------------|

----------------------|----------------------|

-------1-------1------|-------1-------1------|

----------4-----------|----------4-----------|


----------------------|----------------------|

--3-------------------|--3-------------------|

----------------------|----------------------|

Start singing

C7M F7

|----------------------|----------------------|

|-------1-------1------|-------1-------1------|

|----------4-----------|----------2-----------|

|----------------------|----------------------|

|--3-------------------|--3-------------------|

|----------------------|----------------------|

oa epecay

G C7M

----------------------|----------------------|----------------------|

----------3-----------|----------3-----------|-------1-------1------|

-------4-------4------|-------4-------4------|----------4-----------|

----------------------|----------------------|----------------------|

--5-------------------|--5-------------------|--3-------------------|

----------------------|----------------------|----------------------|

coepeo ce cay:

F7 G

----------------------|----------------------|----------------------|

-------1-------1------|----------3-----------|----------3-----------|

----------2-----------|-------4-------4------|-------4-------4------|

----------------------|----------------------|----------------------|

--3-------------------|--5-------------------|--5-------------------|

----------------------|----------------------|----------------------|

\"a e o xopo, aa aa!

C7M F7 G

----------------------|----------------------|----------------------|

-------1-------1------|-------1-------1------|----------3-----------|

----------4-----------|----------2-----------|-------4-------4------|

----------------------|----------------------|----------------------|

--3-------------------|--3-------------------|--5-------------------|

----------------------|----------------------|----------------------|

a o e aea, e

C7M F7

----------------------|----------------------|----------------------|

----------3-----------|-------1-------1------|-------1-------1------|

-------4-------4------|----------4-----------|----------2-----------|

----------------------|----------------------|----------------------|

--5-------------------|--3-------------------|--3-------------------|

----------------------|----------------------|----------------------|

opaa a, O a popoa

G C7M

----------------------|----------------------|--0~---------------||

----------3-----------|----------3-----------|--1~---------------||

-------4-------4------|-------4-------4------|--4~---------------||

----------------------|----------------------|--2~---------------||

--5-------------------|--5-------------------|--3~---------------||

----------------------|----------------------|-------------------||

oxo, ao e eypaa!\"

{A ec poco pae aop}

C F7 G

oa epecay y o oype,

C F7 G

ce cay: \"ape xo ya!

C F7 G

o, e, oe, e o

C F7 G

opye ae eya!\"

Am F C E Am

oa epecay y, ooea ya

Am F C E Am

o a po oecec oe coo

Am F C E Am

oa oee, aoe, aa cyep ea

Am F C E Am F

ce o ac opee - pa acea-a-aa!

C E Am

...a-aa, pa acea!

Am F G

oa epecay , cay cyepoyp

oa epecay ,

apo o o ee,

ocay Ea oa,

ceapoo eoaco pae!

oa epecay y, ooea ya

o a po oecec oe coo

oa oee, aoe, aa cyep ea

ce o ac opee - pa acea-a-aa!

...a-aa, pa acea!