( )

A                                                   

Bm |X24432|

Cm |X35543|

IntroRiff(distorted):

D|------------------------------------------------------------------------|

A|------------------------------------------------------------------------|

E|-/7---7-7-9---9-10---10---10-12-12---8---8-8-10---10-11---11---11-14-14-|

Riff2(apa ac pa oo o e):

D|---------------1---------------------------1-----------|

A|-3-------1-3-----3-----1-2---3-------1-3-----3-----1-3-|

E|-----3-3-------------3-----------3-3-------------3-----|

Bm Cm

eo... ypy...

[Riff2]

pae apo

Bm Cm

e-o... Cypy...

[Riff2]

Xoe a oopo

pre-chorus(ec oo bass):

Cm Gm Bm Dm Cm

G|------------------------------------------------------------------------------|

D|------------------------------------------------------------------------------|

A|-3----------------------------------------------------2------5------------3---|

E|--------------------------3---------------------------------------------------|

... cpay ce e a... oe a a... ... Opa ce y

( a aee... ,-)

chorus:

D# F D#

A ya - a

F D# F D#

a a

Bm Cm

a... y...

[Riff2]

o, copo ce aoc

Bm Cm

a aax -

[Riff2]

opya-epeoa

[pre-chorus]

[chorus]

[IntroRiff] 2 paa

[pre-chorus] (c ao)

[chorus] oo pa