( )

A                                                   

Intro

Hm C9 G C9 G C9

1------------------0--------------------------0-------------------------0----

2-------3------------3-----------0-------------3----------0--------------3--

3-----4------0---------0-------0-------0--------0-------0-------0---------0-

4---4-------------------------0-------------------------0--------------------

5-2--------3----3--------------------3-----3------------------3-----3-------

6---------------------------3-------------------------3-----------------------

1--------------------------------|

2--------------------------------|

3---5---7---9---7---------------|

4--------------------------------|

5---3---5---7---5---------------|

6--------------------------------|

Verse

Hm C9 G C9 Hm Am

1---------------------0--------------------------0--------------------------2-

2-------3---------------3-----------0-------------3----------3----------1---

3-----4---------0---------0-------0--------0-------0-------4----------2-----

4---4----------------------------0------------------------4---------2-------

5-2----------3-----3---------------------3----3---------2---------0---------

6------------------------------3----------------------------------------------

D C9

1-----------------------------------|

2------------3---------3-----------|

3----------2---------0-------------|

4--------0---------2---------------|

5------0---------3-----------------|

6-----------------------------------|

Hm C G

oo, yy a,

C Hm Am D C

yy a, oy ac ep.

Hm C G

Pacca, ya ,

C Hm Am D C

ae , ec aep ep.

Am G Gm C7

ao e e ae

F A Gm C

O oo, o ae, a xopoo ae.

Gm C

A - a - a - a.

poo, yy ,

yy c o co ye o.

epeca, o aa,

o aa, x poco pae o.

ao e e ae

O oo, o ae, a xopoo ae.

A - a - a - a.

o, e ocaoc

Poo e co, a oce eoe coe.

poo, yy ,

Ec xa po ec a epec.