( )

A                                                   

epa - Copea

Chords by Cyclone (cafe@mail.iks.ru)

Hm |X24432|

A |XX2220|

Am |5775XX|

Em |0220XX| (a cao ee eco Em - distorted open E string :)

IntroRiff:

e|------------------0--0--0-|

B|------------------2--2--2-|

G|-3/4--4p3---------2--2--2-| x4

D|-----------5-4-0--2--2--2-|

A|--------------------------|

E|--------------------------|

A eya a Hm

e oop e A

o y ea Am

ye peec Em

eea oa Hm

Hapa ee e A

Paa oey Am

o o ec Em

pe(distorted):

(oo pa e e aop, o yee)

e|----------------------|--------------------|

B|----------------------|--------------------|

G|----------------------|-5-5--4-------------|

D|----------------------|---------7--5--4--5-|

A|-----3---2----------0-|--------------------|

E|-0-----------3---4----|--------------------|

o o o e oa, oo-o

e|----------------------|--------------------|

B|----------------------|--------------------|

G|----------------------|-4-4--2-------------|

D|----------------------|---------5--4--3--4-|

A|----------------------|--------------------|

E|----------------------|--------------------|

y oo Ee

e|----------------------|--------------------|

B|----------------------|--------------------|

G|----------------------|-4-4--2-------------|

D|----------------------|---------5--4--3--4-|

A|----------------------|--------------------|

E|----------------------|--------------------|

o e e He

e|----------------------|--------------------|

B|----------------------|--------------------|

G|----------------------|--------------------|

D|------------------5---|---------4----------|

A|----------------------|--------------------|

E|----------------------|--------------------|

xoe ee ea

E poe e caa

E poe eo

oa oo pe

N.C

A eya copea

IntroRiff x4

E paop Hm

pe epea A

aaae e Am

Cao e cee Em

acope o p Hm

C apa ypa A

yco appe ee, Am

Cay ce Em

[pe]

Coo a ceaope:

e|----15-14-12----12-|----15-14-12----14-|-15-15-14-12-----------------| 2

B|-12----------15----|-12----------15----|-----------------13-----12---| paa

[pe]

aee ce o IntroRiff:

Copea, copea, copea...

eya, eya, eya etc