( )

A                                                   

Am D G Am(riff2)

1|---------------------------3--------3-----------------

2|-------------------5/7-7---3--------3-----------------

3|---------------7---5/7-7---4--b5r4--4---b8r7-5--------

4|-7-7---5h7-7---7-7-----7---5-5----5-5---7------7-5-7--

5|-7---7-----7---5--------------------------------------

6|-5---------5------------------------------------------

Verse1:

Am D G Am(riff2)

׸po-ea o o paccpea yop o c c.

Am D G Am(riff2)

??????? e? c e, o e oop, c peye ec.

Chorus:

Fsus2 Csus2 Dsus2 Asus2

ycooc, a a-a-a-a a a-a-a-a a (x3)

Fsus2 Csus2 Dsus2 E

ycooc, a a-a-a-a a a-a-a-a a

Fsus2 Csus2 Dsus2 Asus2

1|-------3---------------------------0--------------------

2|-----6----6----------3-----------3----3----------0------

3|---5--------5------5----5------2--------2------2----2---

4|-3---------------5--------5--0---------------2--------2-

5|---------------3---------------------------0------------

6|--------------------------------------------------------

Verse2:

Cayee e o paa? eeo aey o.

????????? ????a e, o oep co, ec oo e .

Chorus:

Verse1:

Chorus:

Chorus: