( )

A                                                   

verse:

Dsus2 e|-----0-----

opo B|--------3--

G|--2--------

A# A Dsus2 C#sus2 Faug

pyc co o ee a o ceo -0- -4- -9-

Dsus2 -3- -4- 10-

Ceo -2- -6- 10-

A# A D7sus4 -0- -6- -x-

epa cape acce opoe -x- -4- -x-

B Dsus2 C#sus2 Faug -x- -x- -x-

o oype coaa a eaa

C#m Csus2

o ap e aa co

chorus:

A#m G A

oo co pao yco

C oo co oo pyco

A#m

a

C

He ea

A#m

Cpa a

A

He cya...

e|---------------

B|----0---2---4--

G|--2------------

verse:

ae ae y

Po ea co op

C ca o oo

pao op ce eao

x o aaxa ya o e

Dm Dm7 Dm Dm7 D7sus2 Dm7 D7sus2 Dm7

verse:

oe

oe ac coo o ceoopo

po pa a ex oax opo

ac e poa ee p

C ya cxo epepec e

[chorus]

e|-----------0--0-------------0--------1---0----------------

B|-----2-4--------3---------3---3------3------2---------2---

G|-3/4--------------2-----2--------2---2----------3---------

D|----------------------3--------------0------------3/4---2-

e|--3-----3-----3------1------3---1-----11-11--9-9--

B|--1-------1------1------1---1-----1---11-----9----

G|--2---2-----2------2--------2---------12-----9----

e|--------0------0--------------1--0-----------2---2--

B|----------3-------3-------3---1----1-------2-----2--

G|------2-----2-------2-----2---2----------2-------2--

D|--3--------------------3--3------------0---------0--