( )

A                                                   

 

c pyeo - Pooa

transcribed by ilyaz (2:5090/44.2 & ilyaz@ktk.ru)

Intro: E Am E Am-Asus4-Am E Am-Asus4-Am
E
1|---------0------------------3---1------
2|-------------3------------3---3---3-3--
3|-----1---------1-1------1----------1---
4|---2---2---2----2-----2----------------
5|---------------------------------------
6|-0------------------0------------------

Am
2|-----1---3---1---------1-1-/3--3-/5--5-/6-6--
3|---2---2---2---2-2----2-2--/4-4--/5-5--/7-7--
4|---------------------------------------------
5|-0--------------0---0------------------------

Verse1:
E Am
po pece ece a,
E Am
???? oe poy e e .
A C#m
ee oop ca oe ec,
A B
ee oap oe e ...

Chorus:
E G#7 C#m A
Pooy oap A A A-a -
A eo,
Pooy oap A A A-a -
A eo ...

Intro: E Am-Asus4-Am E Am-Asus4-Am

Verse2:
o ea cac, pa a co,
Cea oopaac, py poa co.
y pepacx po, a co paco, -
eoex pe ocoa oo !

Chorus:
Solo: E Am E Am A C#m A B

Verse3:
Po a ap poa o e,
O ex y a o poca e.
e a o-o ec, ox pyax oa
pepacoo a yxa ce caa !

Chorus: (x2)
Outro:
E G#7 C#m A E G#7 C#m A
2|------------------------7---------7b9r7-------------7-- (x2)
3|-9---9-9-8-8---9--9--9----9-9---9-------8---9---9-9--9-