( )

A                                                   

 

c pyeo - eea

Intro:
------------------------------- -------------------------------
-----1-0---1---1-----1-0------- -----3-0---3---3-------1-1---3-
-------------2----------------- ---1---------1---------2-2---4-
---2-------------0-3----------- -2---------------------2-2---6-
-0----------------------------- -----------------0-------------
------------------------------- -------------------------------
| | | | | | | | | | | | | | | |
------------------------------- -----------------------8-8---7-
-----1-0---1---1-----1-0------- -----3-0---3---3-------5-5---5-
-------------2----------------- ---1---------1---------5-5---4-
---2-------------0-3----------- -2-----------------------------
-0----------------------------- -----------------0-------------
------------------------------- -------------------------------
| | | | | | | | | | | | | | | |
Am Dm
a opooe ae, - a cea p a.
E Am E
Ha ee eceo oe. Oa a oa oe.
Chorus: (x2)
A7 Dm G C
A a oo ee ec - ea pacaa.
Am Dm E Am A
Copo oo acac, a ap e apaec.
A7 Dm G C
A a oo ee ec - ea pacaa.
Am Dm E Am
Copo oo acac, a ap e apaec.
Bridge: Am Em (x8)
ya pae ep, coa ap, aep.
ya pae x, a y e ya o !
Chorus:
Bridge:
Solo: Bm Em F# Bm F# (x2)
Bm Em
Copo ypo acyae, a oca e ocyae.
F# Bm F#
e opoe ? e oa ? He epy x oa.
Chorus: (x2)
A7 Em A D
A a oo ee ec - ea pacaa.
Am Em F# Bm B
Copo oo acac, a ap e apaec.
A a oo ee ec - ea pacaa.
Copo oo acac, a ap e apaec.
A a oo ee ec - ea pacaa.
Copo ypo acac, a a e oac.
A a oo ee ec - ea pacaa.
Bm Em F# Bm
Copo ypo acac, a a e oac.
F# Bm F# Bm
A a e oac, a a e oac.
Bridge: Bm F#m (x2)
Bm