( )

A                                                   

 

c pyeo - epo

transcribed by ilyaz (2:5090/44.2 & ilyaz@ktk.ru)

Intro: D G D A G D (x2)

Verse:
D
A ae, Cepea, e pac
D
Oa eoa paca.
G
ee e e aa
D A G D
e a e epa. Ha e epa.

Chorus:
D C G A D C G A
2|--------6------------------ --------6---8---8b10r8-6b7r6---
3|--7p6h7---7p5h7-7---7^----- --7p6h7---7---7--------------7-
4|------------------9---9---- -------------------------------
x, epoa eyp_a ! x, epoa eyp____a !

D C G A G A
2|--------6------------------
3|--7p6h7---7p5h7-7---7^-----
4|------------------9---9----
x, epoa ey_pa !

Intro:
1|-----10- 2|----8-
2|-9b10--- (x?) 3|------ (x?)
4|-8h9--
Verse:
Chorus:
Solo:

1|-----8-8----8-8/10~----10^-10^-10^-10---8b10v~~~r8----8-----------------
2|-10------10------------------------10---8b10v~~~r8--10-10---8-6---------
3|----------------------------------------------------------------7--5h7--

1|-5------5-----------------------------------------------------
2|-8b10r8-6--6---6--6---6------6--------7----7-7----------------
3|-----------5h7----5h7----5h7---7p5-7--9b11-----9-7-------7-9--
4|---------------------------------------------------9-7-9------

2|-7--------------8----8-8----10-8-------8-8-8-8/10^-^-^-
3|-9b10r9-7-------8h10---8h10-10-8h10-8--8-8-8-8/10------
4|----------9--------------------------------------------

Verse:
Dance: D D# (x8) "C'mon, eee-e ..."
Chorus:
Intro: