( )

A                                                   

 

Intro

Am E Am E

e|----------------------------------------------------------

b|-------0----------------0----------0---------------------

g|-----5----5---5----- 5----------4----4---------5-5--4-

d|---7--------7------7----------6---------6-------7-7--6-

a|-0----------------8---------7----------------0----------

e|----------------------------------------------------------

 

Am E Am E

e|--------------------------------------------------------------

b|-------0----------------0----------0--------------13-13--12-

g|-----5----5---5----- 5----------4----4---------14-14--13-

d|---7--------7------7----------6---------6-------------------

a|-0----------------8---------7----------------0---------------

e|---------------------------------------------------------------

(1- ye eaeo pa epeopo)

Am

a opooe ae

Dm

a cea p ae

E

a ee eceo oe

Am E

Oa a oa oe

 

pe:

A Dm

A a oo ee ee

G C

ea pacaa

Am Dm 2 paa

Copo oo acae

E A7

A ap e apaec

pop:

Am C E (8 pa)

 

Am

ya pae ep

Dm

coa ap, aep

E

ya pae x

Am E

A y e ya o

 

pe

 

pop:

Am C E (8 pa)

 

Solo:

 

g|----6-4-6/7---7-6-4-0----9-9-7-7/6----11-11-9-9/11------------------------

d|-9---------------------------------------------------------------------------------

 

e|----------------------------------------------------------------------------------------14-14-14-14---15-15-15-15---14-15-16-18-16-18-19

b|-12-14-15-14-12/15---15-14-7---15-15-14-8---17-17-15-14----------------

 

Hm

Copo ypo acyae

Em

A oca e ocyae

F#

e opoe, e oa?

Hm F#

e epy x oa

pe:

H Em

A a oo ee ee

A(V) D

ea pacaa

Hm Em

Copo oo acae

F# Hm H7

A ap e apaec

 

(Copo ypo acae

A a e oac)

 

pop

Hm D F# (2 paa)