( )

A                                                   

 

o - eepa

Intro (ac)

G|-------------------------------------------------------|
D|-------------------------------0-----------------------|
A|--------------0--3---------0-3---3--2------------------|
E|-0--0--2--3--------3----3-------------0----------------|

G|-------------------------------------------------------|
D|-----------------------------------------0-------------|
A|--------------0--3---------------0--3------3--2--------|
E|-0--0--2--3--------3----2--3--------------------0------|

Em
e eep c e,
C
o xoe cye,
D Em
o o ce ea?
Em
Ha e xaae e,
C
He apya oo,
D Em
a o co ea.

F G
e o yp, eepa,
F Em
o opea, ca, a cpya?
F Am
ye ca oo G F
poco o o pe oe, eepa.

ce axo pe, o y,
Ho e ye acea
apaeep o a py
a ae ope oa.

Xoec ca, o o co a
op ce ca cee.
oe apa c ypa ye coe
o ce e?