( )

A                                                   

acoa ayaypa / o / pya po

 

opo opa:

 

Intro

Verse

Chorus

Bridge

Verse

Chorus

Chorus (Guitar SOLO) x3

 

Intro/Bridge

 

|----------------------------------|

|----------------------22-233-344--|

|------------------44-4------------| x2

|-22-0-22---02-02-0----------------|

 

Verse

 

|-----------------------------------------------------------------|

|-----------------------------------------------------------------|

|-----------------44-444-444-444-4--------------------------------| x2

|-22-222-222-222-2----------------22-222-222-222-200-000-000-0001-|

 

Chorus:

 

|------------------------------------------------------------------|

|------------------------------------------------------------------|

|------------------444444444444443-2222222222222222----------------| x2

|-2222222222222222---------------------------------000000000000001-|