( )

A                                                   

Solo:

|----------------------------------------|---15--------------15------14------15---|
|---12-----------------------------------|-----------13---------------------------|
|---9---------------12-----------9-------|----------------------------------------|
|----------------------------------------|----------------------------------------|
|----------------------------------------|----------------------------------------|
|----------------------------------------|----------------------------------------|

|----------------------------------------|----------------------------------------|
|---12~~~~~~\\\\------------8--10--8-------|----------------------------10-12-13-17-|
|----------------------------------------|--------------------9-11-12-------------|
|----------------------------------------|------------9-10-12---------------------|
|----------------------------------------|-10-9-10-12-----------------------------|
|----------------------------------------|----------------------------------------|
\\-- ec oee oa o-o co, --/
\\--- o a cea, o pae --/
\\--- o-pyoy, o cy o e ee --/