( )

A                                                   


aoy "oce epo"

Bass intro:
3-----------------|---------------------------
4-----------------|---------------------------
5----------0-2-3--|----------0-1-2------------
6-0-0--0-3--------|-0-0--0-3------------------

C aco y aop:Em C

A oce oo aoe:

1---3---3--3--4--3--4---
2---4---4--4--5--4--5---
3---3---3--3--4--3--4---
4----------------------- (4 paa)
5-----------------------
6-----------------------

o pop pee


Em C Em C Em CEmC
epa co oo , ceo pao ca,
epa co oo , o e ca.
e, aepo, c ypa yo o o pay,
A eep epa e e ya, ya e xoy.

pe:
Em C Em C Em C Em C
epa e e ya, ya e xoy (2 paa).

aype xooo, o e pe a-o eo,
aype aypeo, o e pe a-o ceo.
oey oy, oey e py? oy.
pe:
epa e e ya, ya e xoy (3 paa).