.

( )

A                                                   


ACA - Cepx

e paopaa c ey coe e pyo oe,

e pacca e, ea a oc o oa,


e ya, a , pooea xa opoe a,

e xya, a oa, a y ...

|-------------------------------------------------------------------------|

Bass ---------------------------------------------------------------------|

Gtr. ---------------------------------------------------------------------|

|-----------------------------------5-6-5-6--6/8-8------------------------|

ye 2==============

e epe eac eoc co oooco aaa,

Riff 1: end of Riff1

|-------------------------------------------------------------------------|

|--------0--0---------------0--0------------------------------------------|

|----------------------------------------0--0--------------0-1-0-1-/3--3--|

|-------------------------------------------------------------------------|

e eco acoco apoa yca oapa

w Riff1;

e oa opoa, ea o, a xe ea

Riff2 : end of Riff2

|--------------------------------------------------------------------------

|--------------------------------------------------------------------------

|----------------------------------------5--5--------------3/5--5----------

|---(8)-\-3--3--------------3--3-------------------------------------------

e ec a oo o, a y .

Riff3: end of Riff3

|--------------------------------------------------------------------------

|--------------------------------------------------------------------------

|----------------------------------------5--5------0-1-0-1-/3--3-----------

|---------3--3--------------3--3-------------------------------------------

 

ye 3********************

Dm F Hb C

e pacce yac ooax opo, a pocye yax,

w Riff1;

Dm F Hb C

e p opyac c ece oe cya,

w Riff1;

Gm Dm

e oo a apaa a po e o e ca,

|--------------------------------------------------------------------------

|--------------------------------------------------------------------------

|--------------------------------------3-5--5--------------5-5--5----------

|-------3-3--3--------------3--3-------------------------------------------

Gm Dm Hb C

e po pec, a y .

w Riff3;

ye 4********************

 

e aea a coe ac peyx aeax,

Riff 1a: end of Riff 1a

|-------------------------------------------------------------------------|

|-------------------------------------------------------------------------|

|------3/5--5-------------3-5--5---------------------------0-1-0-1-/3--3--|

|----------------------------------------5--5-----------------------------|

e o o-ca aye poa-opoea,

w Riff 1a;

e ya pcocaac ye, coo a-e,

|--------------------------------------------------------------------------

|--------------------------------------------------------------------------

|----------------------------------------5--5----------------5--5----------

|---------3--3--------------3--3-------------------------------------------

e yca o pyy o, a y .

w Riff 3;

O-o-o!

Coo *********************

- ooo poe, o-oey.

ooe ya! ( a, cop o aop:)

o xoy coo o c coyc e cece ..

oa x coo. ao o ycy.

aco aoaee o ao e a ece,

c eo apa...ay oo o xo(c.aee)

|--------------------------------------------------------------------------

|--------------------------------------------------------------------------

|--10------7br-------------------------------------------------------------

|--------------------7--7------7b-10-8-7-----------------------------------

|---------------8-10--------10-----------10-8-10---------------------------

|--------------------------------------------------------------------------

 

|--------------------------------------------------------------------------

|--------------------------------------------------------------------------

|--10brbr--7br-------------------------------------------------------------

|--------------------7--7------7b-10-8-7-----------------------------------

|---------------8-10--------10-----------10-8-10---------------------------

|--------------------------------------------------------------------------

 

|--13-12-15--------15-----13----12-------12b13r12-\-10--------------------|

|-------------------------------------------------------------------------|

|-----------12------------------------------------------------------------|

|---------------------15-----14----12-12----------------------------------|

|-------------------------------------------------------------------------|

|-------------------------------------------------------------------------|

| |

|-------------------------------------------------------------------------|

|----------aoo-a...-a oo ao o xo :---h-p-------------------|

|(Bass)--------------------------------------------5^7^5-7-8-7-5----------|

|-----------------------------------------------------------------8-6-5---|

aee coo e o , oop opa e yy:(

 

ye 5********************

 

e oco ao ooo o oea epa.

|-------------------------------------------------------------------------|

|-------------------------------------------------------------------------|

|---------------------------------------------------------5-5-5-5-7-7-7-7-|

|---------2----------------------------5------------------5-5-5-5-7-7-7-7-|

|---------2----------------------------5------------------3-3-3-3-5-5-5-5-|

|---------0----------------------------3----------------------------------|

| |

|-------------------------------------------------------------------------|

|-------------------------------------------------------------------------|

|---------7-7-7-5-7--------7-7-7-5-7--------------------2/3-3-3-3-5-5-5-5-|

|-------------------------------------5-7-7-7-7---------------------------|

e o opoa ocpo o ay oy oep,

 

e p o oeo, a o opo po ocae e,

|-------------------------------------------------------------------------|

|-------------------------------------------------------------------------|

|--------------------------------------4----------------------------------|

|---------7----------------------------4----------------------------------|

|---------7----------------------------2----------------------------------|

|---------5---------------------------------------------------------------|

| |

|-------------------------------------------------------------------------|

|-------------------------------------------------------------------------|

|------------------------------------7-5-7-7-------------5/7--7-----------|

|---------5-5-5-5---------5-5--5------------------------------------------|

 

e pace o caoo, a y .

 

e oae ooo ooy aya, a o oa - o,

e aa ceae oooe oc ey eo o,

e popo ece eoep, a epaa,

e copp oa a xpa, a y .

|-------------------------------------------------------------------------|

|-----5--5^6^5--3--5----5--5^6^5--3--5- ee oo,oo pa --------------|

|-------------------------------------------------------------------------|

|-------------------------------------------------------------------------|

|-------------------------------------------------------------------------|

|-------------------------------------------------------------------------|

| |

|-------------------------------------------------------------------------|

|-------------------------------------------------------------------------|

|-----7--7---7--5--7----7--7---7--5--7------------------------------------|

|-------------------------------------------------------------------------|

 

|-------------------------------------------------------------------------|

|----/5--3----------------------------------------------------------------|

|-----------5--4--2-------------------------------------------------------|

|--------------------5--3--2- o o e caoe pa o oce -|

|-------------------------------------------------------------------------|

|-------------------------------------------------------------------------|

oa aa, cop aepx.

o ec pae cepx.

oa aa...

 

Tabbed by Ksavera/Dmoroz 10.09.97

dmoroz@cs.msu.su