.

( )

A                                                   

ACA - ce peeo

oop: ooo oa.
-e: trojan_sli@chat.ru

oepa epc - e 1995.
o xoa aoa ype o ee pa eoo o-pyoy.
cyo e ce aoo coee :)

a op oep e oea...

______ riff1
/
| ac\
|
| 4|---------------------------|---------------------------|
| 5|---------------------------|--0-0---5---0--7--0--7-8-7-|
| 6|--0-0---5---0--7--0--7-8-7-|---------------------------|
|
|
| apa\
| 1|---------------------------|---------------------------|
| 2|---------------------------|---------------------------|
| 3|--0-0---2---0--2--0--2-3-3-|--0-0---2---0--2--0--2-3-3-|
| 4|--0-0---2---0--2--0--2-3-3-|--0-0---2---0--2--0--2-3-3-|
| 5|---------------------------|---------------------------|
| 6|---------------------------|---------------------------|
\_____

Am G Am G Am

Dm Am
oe oa
G Am
ee ya, e eep e aee.
Dm Am
o pooa,
G Am
oo ca o xopoo cee.
ep p a oc,
ooo o ca a ee py.
o cy oec,
opoa e, a opae cpy.

pe:
Dm Am
yxoy ya, e eo
G Am
eo e oo.
Dm Am
poo o xeo.
G Am
ce peeo.

e o ea
Ocae oce paoopa c oo
ope e ea,
pe opoa o e eao.

pe.

oo ce oe oe
Coa yo e oo ea
o o oe
Oe oa, a oce oea.

pe

oe co o
ya e eo a a coo
Ha ocao a a xea
ce peeo.

Am Dm c app a 5 ay.